  0
SECTION
  2
HEADER
  9
$ACADVER
  1
AC1015
  9
$ACADMAINTVER
 70
     6
  9
$DWGCODEPAGE
  3
ANSI_1252
  9
$INSBASE
 10
0.0
 20
0.0
 30
0.0
  9
$EXTMIN
 10
-234.2
 20
-9.5
 30
0.0
  9
$EXTMAX
 10
234.2
 20
600.0
 30
0.0
  9
$LIMMIN
 10
0.0
 20
0.0
  9
$LIMMAX
 10
420.0
 20
297.0
  9
$ORTHOMODE
 70
     0
  9
$REGENMODE
 70
     1
  9
$FILLMODE
 70
     1
  9
$QTEXTMODE
 70
     0
  9
$MIRRTEXT
 70
     1
  9
$LTSCALE
 40
1.0
  9
$ATTMODE
 70
     1
  9
$TEXTSIZE
 40
3.5
  9
$TRACEWID
 40
1.0
  9
$TEXTSTYLE
  7
Standard
  9
$CLAYER
  8
0
  9
$CELTYPE
  6
ByLayer
  9
$CECOLOR
 62
   256
  9
$CELTSCALE
 40
1.0
  9
$DISPSILH
 70
     0
  9
$DIMSCALE
 40
1.0
  9
$DIMASZ
 40
3.302
  9
$DIMEXO
 40
1.0
  9
$DIMDLI
 40
3.75
  9
$DIMRND
 40
0.0
  9
$DIMDLE
 40
0.0
  9
$DIMEXE
 40
1.0
  9
$DIMTP
 40
0.0
  9
$DIMTM
 40
0.0
  9
$DIMTXT
 40
3.5
  9
$DIMCEN
 40
2.5
  9
$DIMTSZ
 40
0.0
  9
$DIMTOL
 70
     0
  9
$DIMLIM
 70
     0
  9
$DIMTIH
 70
     1
  9
$DIMTOH
 70
     1
  9
$DIMSE1
 70
     0
  9
$DIMSE2
 70
     0
  9
$DIMTAD
 70
     1
  9
$DIMZIN
 70
     1
  9
$DIMBLK
  1

  9
$DIMASO
 70
     1
  9
$DIMSHO
 70
     1
  9
$DIMPOST
  1

  9
$DIMAPOST
  1

  9
$DIMALT
 70
     0
  9
$DIMALTD
 70
     3
  9
$DIMALTF
 40
0.0393700787
  9
$DIMLFAC
 40
1.0
  9
$DIMTOFL
 70
     1
  9
$DIMTVP
 40
0.0
  9
$DIMTIX
 70
     0
  9
$DIMSOXD
 70
     0
  9
$DIMSAH
 70
     0
  9
$DIMBLK1
  1

  9
$DIMBLK2
  1

  9
$DIMSTYLE
  2
ISO-25
  9
$DIMCLRD
 70
     0
  9
$DIMCLRE
 70
     0
  9
$DIMCLRT
 70
     0
  9
$DIMTFAC
 40
1.0
  9
$DIMGAP
 40
1.524
  9
$DIMJUST
 70
     0
  9
$DIMSD1
 70
     0
  9
$DIMSD2
 70
     0
  9
$DIMTOLJ
 70
     0
  9
$DIMTZIN
 70
     1
  9
$DIMALTZ
 70
     0
  9
$DIMALTTZ
 70
     0
  9
$DIMUPT
 70
     0
  9
$DIMDEC
 70
     2
  9
$DIMTDEC
 70
     2
  9
$DIMALTU
 70
     2
  9
$DIMALTTD
 70
     3
  9
$DIMTXSTY
  7
Standard
  9
$DIMAUNIT
 70
     0
  9
$DIMADEC
 70
     2
  9
$DIMALTRND
 40
0.0
  9
$DIMAZIN
 70
     0
  9
$DIMDSEP
 70
    44
  9
$DIMATFIT
 70
     3
  9
$DIMFRAC
 70
     0
  9
$DIMLDRBLK
  1

  9
$DIMLUNIT
 70
     2
  9
$DIMLWD
 70
    -2
  9
$DIMLWE
 70
    -2
  9
$DIMTMOVE
 70
     0
  9
$LUNITS
 70
     2
  9
$LUPREC
 70
     2
  9
$SKETCHINC
 40
1.0
  9
$FILLETRAD
 40
10.0
  9
$AUNITS
 70
     0
  9
$AUPREC
 70
     2
  9
$MENU
  1
.
  9
$ELEVATION
 40
0.0
  9
$PELEVATION
 40
0.0
  9
$THICKNESS
 40
0.0
  9
$LIMCHECK
 70
     0
  9
$CHAMFERA
 40
0.0
  9
$CHAMFERB
 40
0.0
  9
$CHAMFERC
 40
0.0
  9
$CHAMFERD
 40
0.0
  9
$SKPOLY
 70
     0
  9
$TDCREATE
 40
2459257.611486377
  9
$TDUCREATE
 40
2459257.611486377
  9
$TDUPDATE
 40
2459257.611530729
  9
$TDUUPDATE
 40
2459257.611530729
  9
$TDINDWG
 40
0.0000000116
  9
$TDUSRTIMER
 40
0.0000000116
  9
$USRTIMER
 70
     1
  9
$ANGBASE
 50
0.0
  9
$ANGDIR
 70
     0
  9
$PDMODE
 70
     0
  9
$PDSIZE
 40
-1.0
  9
$PLINEWID
 40
0.0
  9
$SPLFRAME
 70
     0
  9
$SPLINETYPE
 70
     6
  9
$SPLINESEGS
 70
     8
  9
$HANDSEED
  5
4C1
  9
$SURFTAB1
 70
     6
  9
$SURFTAB2
 70
     6
  9
$SURFTYPE
 70
     6
  9
$SURFU
 70
     6
  9
$SURFV
 70
     6
  9
$UCSBASE
  2

  9
$UCSNAME
  2

  9
$UCSORG
 10
0.0
 20
0.0
 30
0.0
  9
$UCSXDIR
 10
1.0
 20
0.0
 30
0.0
  9
$UCSYDIR
 10
0.0
 20
1.0
 30
0.0
  9
$UCSORTHOREF
  2

  9
$UCSORTHOVIEW
 70
     0
  9
$UCSORGTOP
 10
0.0
 20
0.0
 30
0.0
  9
$UCSORGBOTTOM
 10
0.0
 20
0.0
 30
0.0
  9
$UCSORGLEFT
 10
0.0
 20
0.0
 30
0.0
  9
$UCSORGRIGHT
 10
0.0
 20
0.0
 30
0.0
  9
$UCSORGFRONT
 10
0.0
 20
0.0
 30
0.0
  9
$UCSORGBACK
 10
0.0
 20
0.0
 30
0.0
  9
$PUCSBASE
  2

  9
$PUCSNAME
  2

  9
$PUCSORG
 10
0.0
 20
0.0
 30
0.0
  9
$PUCSXDIR
 10
1.0
 20
0.0
 30
0.0
  9
$PUCSYDIR
 10
0.0
 20
1.0
 30
0.0
  9
$PUCSORTHOREF
  2

  9
$PUCSORTHOVIEW
 70
     0
  9
$PUCSORGTOP
 10
0.0
 20
0.0
 30
0.0
  9
$PUCSORGBOTTOM
 10
0.0
 20
0.0
 30
0.0
  9
$PUCSORGLEFT
 10
0.0
 20
0.0
 30
0.0
  9
$PUCSORGRIGHT
 10
0.0
 20
0.0
 30
0.0
  9
$PUCSORGFRONT
 10
0.0
 20
0.0
 30
0.0
  9
$PUCSORGBACK
 10
0.0
 20
0.0
 30
0.0
  9
$USERI1
 70
     0
  9
$USERI2
 70
     0
  9
$USERI3
 70
     0
  9
$USERI4
 70
     0
  9
$USERI5
 70
     0
  9
$USERR1
 40
0.0
  9
$USERR2
 40
0.0
  9
$USERR3
 40
0.0
  9
$USERR4
 40
0.0
  9
$USERR5
 40
0.0
  9
$WORLDVIEW
 70
     1
  9
$SHADEDGE
 70
     3
  9
$SHADEDIF
 70
    70
  9
$TILEMODE
 70
     1
  9
$MAXACTVP
 70
    64
  9
$PINSBASE
 10
0.0
 20
0.0
 30
0.0
  9
$PLIMCHECK
 70
     0
  9
$PEXTMIN
 10
-234.2
 20
-9.5
 30
0.0
  9
$PEXTMAX
 10
234.2
 20
600.0
 30
0.0
  9
$PLIMMIN
 10
-296.7128205128
 20
-32.9423076923
  9
$PLIMMAX
 10
631.6025641026
 20
623.4423076923
  9
$UNITMODE
 70
     0
  9
$VISRETAIN
 70
     1
  9
$PLINEGEN
 70
     0
  9
$PSLTSCALE
 70
     1
  9
$TREEDEPTH
 70
  3020
  9
$CMLSTYLE
  2
Standard
  9
$CMLJUST
 70
     0
  9
$CMLSCALE
 40
20.0
  9
$PROXYGRAPHICS
 70
     1
  9
$MEASUREMENT
 70
     1
  9
$CELWEIGHT
370
    -1
  9
$ENDCAPS
280
     0
  9
$JOINSTYLE
280
     0
  9
$LWDISPLAY
290
     1
  9
$INSUNITS
 70
     4
  9
$HYPERLINKBASE
  1

  9
$STYLESHEET
  1

  9
$XEDIT
290
     1
  9
$CEPSNTYPE
380
     0
  9
$PSTYLEMODE
290
     1
  9
$FINGERPRINTGUID
  2
{9622392b-15f6-4b45-bb8c-6e7d72d4c1a0}
  9
$VERSIONGUID
  2
{FAEB1C32-E019-11D5-929B-00C0DF256EC4}
  9
$EXTNAMES
290
     1
  9
$PSVPSCALE
 40
0.0
  9
$OLESTARTUP
290
     0
  0
ENDSEC
  0
SECTION
  2
CLASSES
  0
CLASS
  1
ACDBDICTIONARYWDFLT
  2
AcDbDictionaryWithDefault
  3
ObjectDBX Classes
 90
        0
280
     0
281
     0
  0
CLASS
  1
VISUALSTYLE
  2
AcDbVisualStyle
  3
ObjectDBX Classes
 90
     4095
280
     0
281
     0
  0
CLASS
  1
MATERIAL
  2
AcDbMaterial
  3
ObjectDBX Classes
 90
     1153
280
     0
281
     0
  0
CLASS
  1
SCALE
  2
AcDbScale
  3
ObjectDBX Classes
 90
     1153
280
     0
281
     0
  0
CLASS
  1
TABLESTYLE
  2
AcDbTableStyle
  3
ObjectDBX Classes
 90
     4095
280
     0
281
     0
  0
CLASS
  1
MLEADERSTYLE
  2
AcDbMLeaderStyle
  3
ACDB_MLEADERSTYLE_CLASS
 90
     4095
280
     0
281
     0
  0
CLASS
  1
SUN
  2
AcDbSun
  3
SCENEOE
 90
     1153
280
     0
281
     0
  0
CLASS
  1
ACDBPLACEHOLDER
  2
AcDbPlaceHolder
  3
ObjectDBX Classes
 90
        0
280
     0
281
     0
  0
CLASS
  1
LAYOUT
  2
AcDbLayout
  3
ObjectDBX Classes
 90
        0
280
     0
281
     0
  0
ENDSEC
  0
SECTION
  2
TABLES
  0
TABLE
  2
VPORT
  5
8
330
0
100
AcDbSymbolTable
 70
     1
  0
VPORT
  5
29
330
8
100
AcDbSymbolTableRecord
100
AcDbViewportTableRecord
  2
*Active
 70
     0
 10
0.0
 20
0.0
 11
1.0
 21
1.0
 12
0.0
 22
295.25
 13
0.0
 23
0.0
 14
10.0
 24
10.0
 15
10.0
 25
10.0
 16
0.0
 26
0.0
 36
1.0
 17
0.0
 27
0.0
 37
0.0
 40
621.69
 41
0.7684987695
 42
50.0
 43
0.0
 44
0.0
 50
0.0
 51
0.0
 71
     0
 72
   100
 73
     1
 74
     3
 75
     0
 76
     0
 77
     0
 78
     0
281
     0
 65
     1
110
0.0
120
0.0
130
0.0
111
1.0
121
0.0
131
0.0
112
0.0
122
1.0
132
0.0
 79
     0
146
0.0
  0
ENDTAB
  0
TABLE
  2
LTYPE
  5
5
330
0
100
AcDbSymbolTable
 70
     6
  0
LTYPE
  5
14
330
5
100
AcDbSymbolTableRecord
100
AcDbLinetypeTableRecord
  2
ByBlock
 70
     0
  3

 72
    65
 73
     0
 40
0.0
  0
LTYPE
  5
15
330
5
100
AcDbSymbolTableRecord
100
AcDbLinetypeTableRecord
  2
ByLayer
 70
     0
  3

 72
    65
 73
     0
 40
0.0
  0
LTYPE
  5
16
330
5
100
AcDbSymbolTableRecord
100
AcDbLinetypeTableRecord
  2
Continuous
 70
     0
  3
Solid line
 72
    65
 73
     0
 40
0.0
  0
LTYPE
  5
6E
330
5
100
AcDbSymbolTableRecord
100
AcDbLinetypeTableRecord
  2
HIDDEN
 70
     0
  3
Hidden __ __ __ __ __ __ __ __ __ __ __ __ __ __
 72
    65
 73
     2
 40
1.905
 49
1.27
 74
     0
 49
-0.635
 74
     0
  0
LTYPE
  5
6F
330
5
100
AcDbSymbolTableRecord
100
AcDbLinetypeTableRecord
  2
PHANTOM
 70
     0
  3
Phantom ______  __  __  ______  __  __  ______
 72
    65
 73
     6
 40
12.7
 49
6.35
 74
     0
 49
-1.27
 74
     0
 49
1.27
 74
     0
 49
-1.27
 74
     0
 49
1.27
 74
     0
 49
-1.27
 74
     0
  0
LTYPE
  5
70
330
5
100
AcDbSymbolTableRecord
100
AcDbLinetypeTableRecord
  2
CENTER
 70
     0
  3
Center ____ _ ____ _ ____ _ ____ _ ____ _ ____
 72
    65
 73
     4
 40
10.16
 49
6.35
 74
     0
 49
-1.27
 74
     0
 49
1.27
 74
     0
 49
-1.27
 74
     0
  0
LTYPE
  5
71
330
5
100
AcDbSymbolTableRecord
100
AcDbLinetypeTableRecord
  2
CENTERX2
 70
     0
  3
Center (2x) ________  __  ________  __  _____
 72
    65
 73
     4
 40
20.32
 49
12.7
 74
     0
 49
-2.54
 74
     0
 49
2.54
 74
     0
 49
-2.54
 74
     0
  0
LTYPE
  5
72
330
5
100
AcDbSymbolTableRecord
100
AcDbLinetypeTableRecord
  2
DOT2
 70
     0
  3
Dot (.5x) ........................................
 72
    65
 73
     2
 40
0.635
 49
0.0
 74
     0
 49
-0.635
 74
     0
  0
ENDTAB
  0
TABLE
  2
LAYER
  5
2
330
0
100
AcDbSymbolTable
 70
     1
  0
LAYER
  5
10
330
2
100
AcDbSymbolTableRecord
100
AcDbLayerTableRecord
  2
0
 70
     0
 62
     7
  6
Continuous
370
    -3
390
F
  0
ENDTAB
  0
TABLE
  2
STYLE
  5
3
330
0
100
AcDbSymbolTable
 70
     1
  0
STYLE
  5
11
330
3
100
AcDbSymbolTableRecord
100
AcDbTextStyleTableRecord
  2
Standard
 70
     0
 40
0.0
 41
1.0
 50
0.0
 71
     0
 42
3.5
  3
txt
  4

  0
ENDTAB
  0
TABLE
  2
VIEW
  5
6
330
0
100
AcDbSymbolTable
 70
     0
  0
ENDTAB
  0
TABLE
  2
UCS
  5
7
330
0
100
AcDbSymbolTable
 70
     0
  0
ENDTAB
  0
TABLE
  2
APPID
  5
9
330
0
100
AcDbSymbolTable
 70
     1
  0
APPID
  5
12
330
9
100
AcDbSymbolTableRecord
100
AcDbRegAppTableRecord
  2
ACAD
 70
     0
  0
ENDTAB
  0
TABLE
  2
DIMSTYLE
  5
A
330
0
100
AcDbSymbolTable
 70
     1
100
AcDbDimStyleTable
  0
DIMSTYLE
105
27
330
A
100
AcDbSymbolTableRecord
100
AcDbDimStyleTableRecord
  2
ISO-25
 70
     0
 41
2.5
 42
0.625
 43
3.75
 44
1.25
 73
     0
 74
     0
 77
     1
 78
     8
140
2.5
141
2.5
143
0.0393700787
147
0.625
171
     3
172
     1
178
     0
271
     2
272
     2
274
     3
278
    44
283
     0
284
     8
340
11
  0
ENDTAB
  0
TABLE
  2
BLOCK_RECORD
  5
1
330
0
100
AcDbSymbolTable
 70
     3
  0
BLOCK_RECORD
  5
1F
330
1
100
AcDbSymbolTableRecord
100
AcDbBlockTableRecord
  2
*Model_Space
340
22
  0
BLOCK_RECORD
  5
1B
330
1
100
AcDbSymbolTableRecord
100
AcDbBlockTableRecord
  2
*Paper_Space
340
1E
  0
BLOCK_RECORD
  5
23
330
1
100
AcDbSymbolTableRecord
100
AcDbBlockTableRecord
  2
*Paper_Space0
340
26
  0
BLOCK_RECORD
  5
219
330
1
100
AcDbSymbolTableRecord
100
AcDbBlockTableRecord
  2
*Paper_Space1
340
21A
  0
BLOCK_RECORD
  5
319
330
1
100
AcDbSymbolTableRecord
100
AcDbBlockTableRecord
  2
*Paper_Space2
340
31A
  0
ENDTAB
  0
ENDSEC
  0
SECTION
  2
BLOCKS
  0
BLOCK
  5
20
330
1F
100
AcDbEntity
  8
0
100
AcDbBlockBegin
  2
*Model_Space
 70
     0
 10
0.0
 20
0.0
 30
0.0
  3
*Model_Space
  1

  0
ENDBLK
  5
21
330
1F
100
AcDbEntity
  8
0
100
AcDbBlockEnd
  0
BLOCK
  5
1C
330
1B
100
AcDbEntity
 67
     1
  8
0
100
AcDbBlockBegin
  2
*Paper_Space
 70
     0
 10
0.0
 20
0.0
 30
0.0
  3
*Paper_Space
  1

  0
ENDBLK
  5
1D
330
1B
100
AcDbEntity
 67
     1
  8
0
100
AcDbBlockEnd
  0
BLOCK
  5
24
330
23
100
AcDbEntity
  8
0
100
AcDbBlockBegin
  2
*Paper_Space0
 70
     0
 10
0.0
 20
0.0
 30
0.0
  3
*Paper_Space0
  1

  0
LINE
  5
204
330
23
100
AcDbEntity
  8
0
  6
Continuous
 62
     7
370
    25
100
AcDbLine
 10
144.25
 20
-9.5
 30
0.0
 11
144.25
 21
0.0
 31
0.0
  0
LINE
  5
205
330
23
100
AcDbEntity
  8
0
  6
Continuous
 62
     7
370
    25
100
AcDbLine
 10
133.75
 20
0.0
 30
0.0
 11
133.75
 21
-9.5
 31
0.0
  0
LINE
  5
206
330
23
100
AcDbEntity
  8
0
  6
Continuous
 62
     7
370
    25
100
AcDbLine
 10
-115.55
 20
-9.5
 30
0.0
 11
-115.55
 21
0.0
 31
0.0
  0
LINE
  5
207
330
23
100
AcDbEntity
  8
0
  6
Continuous
 62
     7
370
    25
100
AcDbLine
 10
-126.05
 20
0.0
 30
0.0
 11
-126.05
 21
-9.5
 31
0.0
  0
LINE
  5
208
330
23
100
AcDbEntity
  8
0
  6
Continuous
 62
     7
370
    25
100
AcDbLine
 10
177.2
 20
506.3
 30
0.0
 11
177.2
 21
261.3
 31
0.0
  0
LINE
  5
209
330
23
100
AcDbEntity
  8
0
  6
Continuous
 62
     7
370
    25
100
AcDbLine
 10
177.2
 20
261.3
 30
0.0
 11
159.0
 21
261.3
 31
0.0
  0
LINE
  5
20A
330
23
100
AcDbEntity
  8
0
  6
Continuous
 62
     7
370
    25
100
AcDbLine
 10
167.2
 20
261.3
 30
0.0
 11
167.2
 21
506.3
 31
0.0
  0
LINE
  5
20B
330
23
100
AcDbEntity
  8
0
  6
Continuous
 62
     7
370
    25
100
AcDbLine
 10
159.0
 20
506.3
 30
0.0
 11
177.2
 21
506.3
 31
0.0
  0
LINE
  5
20C
330
23
100
AcDbEntity
  8
0
  6
Continuous
 62
     7
370
    25
100
AcDbLine
 10
-203.0
 20
0.0
 30
0.0
 11
-203.0
 21
600.0
 31
0.0
  0
LINE
  5
20D
330
23
100
AcDbEntity
  8
0
  6
Continuous
 62
     7
370
    25
100
AcDbLine
 10
159.0
 20
600.0
 30
0.0
 11
159.0
 21
0.0
 31
0.0
  0
LINE
  5
20E
330
23
100
AcDbEntity
  8
0
  6
Continuous
 62
     7
370
    25
100
AcDbLine
 10
-203.0
 20
600.0
 30
0.0
 11
159.0
 21
600.0
 31
0.0
  0
LINE
  5
20F
330
23
100
AcDbEntity
  8
0
  6
Continuous
 62
     7
370
    25
100
AcDbLine
 10
133.75
 20
-9.5
 30
0.0
 11
144.25
 21
-9.5
 31
0.0
  0
LINE
  5
210
330
23
100
AcDbEntity
  8
0
  6
Continuous
 62
     7
370
    25
100
AcDbLine
 10
177.2
 20
245.0
 30
0.0
 11
177.2
 21
0.0
 31
0.0
  0
LINE
  5
211
330
23
100
AcDbEntity
  8
0
  6
Continuous
 62
     7
370
    25
100
AcDbLine
 10
177.2
 20
0.0
 30
0.0
 11
-203.0
 21
0.0
 31
0.0
  0
LINE
  5
212
330
23
100
AcDbEntity
  8
0
  6
Continuous
 62
     7
370
    25
100
AcDbLine
 10
167.2
 20
0.0
 30
0.0
 11
167.2
 21
245.0
 31
0.0
  0
LINE
  5
213
330
23
100
AcDbEntity
  8
0
  6
Continuous
 62
     7
370
    25
100
AcDbLine
 10
159.0
 20
245.0
 30
0.0
 11
177.2
 21
245.0
 31
0.0
  0
LINE
  5
214
330
23
100
AcDbEntity
  8
0
  6
Continuous
 62
     7
370
    25
100
AcDbLine
 10
159.0
 20
595.3
 30
0.0
 11
177.5
 21
595.3
 31
0.0
  0
LINE
  5
215
330
23
100
AcDbEntity
  8
0
  6
Continuous
 62
     7
370
    25
100
AcDbLine
 10
167.5
 20
518.3
 30
0.0
 11
167.5
 21
595.3
 31
0.0
  0
LINE
  5
216
330
23
100
AcDbEntity
  8
0
  6
Continuous
 62
     7
370
    25
100
AcDbLine
 10
177.5
 20
518.3
 30
0.0
 11
159.0
 21
518.3
 31
0.0
  0
LINE
  5
217
330
23
100
AcDbEntity
  8
0
  6
Continuous
 62
     7
370
    25
100
AcDbLine
 10
177.5
 20
595.3
 30
0.0
 11
177.5
 21
518.3
 31
0.0
  0
LINE
  5
218
330
23
100
AcDbEntity
  8
0
  6
Continuous
 62
     7
370
    25
100
AcDbLine
 10
-126.05
 20
-9.5
 30
0.0
 11
-115.55
 21
-9.5
 31
0.0
  0
VIEWPORT
  5
4BB
330
23
100
AcDbEntity
  8
0
100
AcDbViewport
 10
0.0
 20
0.0
 30
0.0
 40
205.6
 41
156.0
 68
     1
 69
     1
 12
0.0
 22
295.25
 13
0.0
 23
0.0
 14
10.0
 24
10.0
 15
10.0
 25
10.0
 16
0.0
 26
0.0
 36
1.0
 17
0.0
 27
0.0
 37
0.0
 42
50.0
 43
0.0
 44
0.0
 45
621.69
 50
0.0
 51
0.0
 72
   100
 90
   557152
  1

281
     0
 71
     1
 74
     0
110
0.0
120
0.0
130
0.0
111
1.0
121
0.0
131
0.0
112
0.0
122
1.0
132
0.0
 79
     0
146
0.0
  0
ENDBLK
  5
25
330
23
100
AcDbEntity
  8
0
100
AcDbBlockEnd
  0
BLOCK
  5
21B
330
219
100
AcDbEntity
  8
0
100
AcDbBlockBegin
  2
*Paper_Space1
 70
     0
 10
0.0
 20
0.0
 30
0.0
  3
*Paper_Space1
  1

  0
LINE
  5
2AB
330
219
100
AcDbEntity
  8
0
  6
Continuous
 62
     7
370
    25
100
AcDbLine
 10
-209.1
 20
165.75
 30
0.0
 11
-191.0
 21
165.75
 31
0.0
  0
LINE
  5
2AC
330
219
100
AcDbEntity
  8
0
  6
Continuous
 62
     7
370
    25
100
AcDbLine
 10
-191.0
 20
175.25
 30
0.0
 11
-209.1
 21
175.25
 31
0.0
  0
LINE
  5
2AD
330
219
100
AcDbEntity
  8
0
  6
Continuous
 62
     7
370
    25
100
AcDbLine
 10
209.1
 20
175.25
 30
0.0
 11
191.0
 21
175.25
 31
0.0
  0
LINE
  5
2AE
330
219
100
AcDbEntity
  8
0
  6
Continuous
 62
     7
370
    25
100
AcDbLine
 10
191.0
 20
165.75
 30
0.0
 11
209.1
 21
165.75
 31
0.0
  0
LINE
  5
2AF
330
219
100
AcDbEntity
  8
0
  6
Continuous
 62
     7
370
    25
100
AcDbLine
 10
211.2
 20
127.0
 30
0.0
 11
211.2
 21
147.0
 31
0.0
  0
LINE
  5
2B0
330
219
100
AcDbEntity
  8
0
  6
Continuous
 62
     7
370
    25
100
AcDbLine
 10
174.2
 20
151.0
 30
0.0
 11
174.2
 21
153.0
 31
0.0
  0
LINE
  5
2B1
330
219
100
AcDbEntity
  8
0
  6
Continuous
 62
     7
370
    25
100
AcDbLine
 10
-172.8
 20
151.0
 30
0.0
 11
-172.8
 21
153.0
 31
0.0
  0
LINE
  5
2B2
330
219
100
AcDbEntity
  8
0
  6
Continuous
 62
     7
370
    25
100
AcDbLine
 10
174.2
 20
153.0
 30
0.0
 11
-172.8
 21
153.0
 31
0.0
  0
LINE
  5
2B3
330
219
100
AcDbEntity
  8
0
  6
Continuous
 62
     7
370
    25
100
AcDbLine
 10
78.0
 20
137.0
 30
0.0
 11
-78.0
 21
137.0
 31
0.0
  0
LINE
  5
2B4
330
219
100
AcDbEntity
  8
0
  6
Continuous
 62
     7
370
    25
100
AcDbLine
 10
-163.1
 20
201.1
 30
0.0
 11
-163.1
 21
203.0
 31
0.0
  0
LINE
  5
2B5
330
219
100
AcDbEntity
  8
0
  6
Continuous
 62
     7
370
    25
100
AcDbLine
 10
-163.1
 20
201.1
 30
0.0
 11
-209.1
 21
201.1
 31
0.0
  0
LINE
  5
2B6
330
219
100
AcDbEntity
  8
0
  6
Continuous
 62
     7
370
    25
100
AcDbLine
 10
-209.1
 20
155.1
 30
0.0
 11
-209.1
 21
201.1
 31
0.0
  0
LINE
  5
2B7
330
219
100
AcDbEntity
  8
0
  6
Continuous
 62
     7
370
    25
100
AcDbLine
 10
-163.1
 20
203.0
 30
0.0
 11
-211.0
 21
203.0
 31
0.0
  0
LINE
  5
2B8
330
219
100
AcDbEntity
  8
0
  6
Continuous
 62
     7
370
    25
100
AcDbLine
 10
-211.0
 20
155.1
 30
0.0
 11
-209.1
 21
155.1
 31
0.0
  0
LINE
  5
2B9
330
219
100
AcDbEntity
  8
0
  6
Continuous
 62
     7
370
    25
100
AcDbLine
 10
-178.5
 20
135.0
 30
0.0
 11
-178.5
 21
-140.8
 31
0.0
  0
LINE
  5
2BA
330
219
100
AcDbEntity
  8
0
  6
Continuous
 62
     7
370
    25
100
AcDbLine
 10
80.0
 20
151.0
 30
0.0
 11
80.0
 21
134.0
 31
0.0
  0
LINE
  5
2BB
330
219
100
AcDbEntity
  8
0
  6
Continuous
 62
     7
370
    25
100
AcDbLine
 10
80.0
 20
151.0
 30
0.0
 11
210.0
 21
151.0
 31
0.0
  0
LINE
  5
2BC
330
219
100
AcDbEntity
  8
0
  6
Continuous
 62
     7
370
    25
100
AcDbLine
 10
80.0
 20
135.0
 30
0.0
 11
203.0603485773
 21
135.0
 31
0.0
  0
LINE
  5
2BD
330
219
100
AcDbEntity
  8
0
  6
Continuous
 62
     7
370
    25
100
AcDbLine
 10
-203.0832161278
 20
135.0
 30
0.0
 11
-80.0
 21
135.0
 31
0.0
  0
LINE
  5
2BE
330
219
100
AcDbEntity
  8
0
  6
Continuous
 62
     7
370
    25
100
AcDbLine
 10
-80.0
 20
134.0
 30
0.0
 11
-80.0
 21
151.0
 31
0.0
  0
LINE
  5
2BF
330
219
100
AcDbEntity
  8
0
  6
Continuous
 62
     7
370
    25
100
AcDbLine
 10
-234.2
 20
203.0
 30
0.0
 11
-234.2
 21
-159.0
 31
0.0
  0
LINE
  5
2C0
330
219
100
AcDbEntity
  8
0
  6
Continuous
 62
     7
370
    25
100
AcDbLine
 10
-216.0
 20
203.0
 30
0.0
 11
-234.2
 21
203.0
 31
0.0
  0
LINE
  5
2C1
330
219
100
AcDbEntity
  8
0
  6
Continuous
 62
     7
370
    25
100
AcDbLine
 10
-216.0
 20
203.0
 30
0.0
 11
-216.0
 21
-159.0
 31
0.0
  0
LINE
  5
2C2
330
219
100
AcDbEntity
  8
0
  6
Continuous
 62
     7
370
    25
100
AcDbLine
 10
-211.0
 20
203.0
 30
0.0
 11
-211.0
 21
154.0
 31
0.0
  0
LINE
  5
2C3
330
219
100
AcDbEntity
  8
0
  6
Continuous
 62
     7
370
    25
100
AcDbLine
 10
-212.8
 20
155.0
 30
0.0
 11
-211.0
 21
155.0
 31
0.0
  0
LINE
  5
2C4
330
219
100
AcDbEntity
  8
0
  6
Continuous
 62
     7
370
    25
100
AcDbLine
 10
-212.8
 20
154.0
 30
0.0
 11
-212.8
 21
187.0
 31
0.0
  0
LINE
  5
2C5
330
219
100
AcDbEntity
  8
0
  6
Continuous
 62
     7
370
    25
100
AcDbLine
 10
-212.8
 20
186.0
 30
0.0
 11
-211.0
 21
186.0
 31
0.0
  0
LINE
  5
2C6
330
219
100
AcDbEntity
  8
0
  6
Continuous
 62
     7
370
    25
100
AcDbLine
 10
-216.0
 20
151.0
 30
0.0
 11
-214.0
 21
151.0
 31
0.0
  0
LINE
  5
2C7
330
219
100
AcDbEntity
  8
0
  6
Continuous
 62
     7
370
    25
100
AcDbLine
 10
-216.0
 20
152.8
 30
0.0
 11
-214.0
 21
152.8
 31
0.0
  0
LINE
  5
2C8
330
219
100
AcDbEntity
  8
0
  6
Continuous
 62
     7
370
    25
100
AcDbLine
 10
-216.0
 20
190.0
 30
0.0
 11
-214.0
 21
190.0
 31
0.0
  0
LINE
  5
2C9
330
219
100
AcDbEntity
  8
0
  6
Continuous
 62
     7
370
    25
100
AcDbLine
 10
-214.0
 20
188.2
 30
0.0
 11
-216.0
 21
188.2
 31
0.0
  0
LINE
  5
2CA
330
219
100
AcDbEntity
  8
0
  6
Continuous
 62
     7
370
    25
100
AcDbLine
 10
-191.0
 20
175.25
 30
0.0
 11
-191.0
 21
165.75
 31
0.0
  0
LINE
  5
2CB
330
219
100
AcDbEntity
  8
0
  6
Continuous
 62
     7
370
    25
100
AcDbLine
 10
212.8
 20
186.0
 30
0.0
 11
211.0
 21
186.0
 31
0.0
  0
LINE
  5
2CC
330
219
100
AcDbEntity
  8
0
  6
Continuous
 62
     7
370
    25
100
AcDbLine
 10
212.8
 20
154.0
 30
0.0
 11
212.8
 21
187.0
 31
0.0
  0
LINE
  5
2CD
330
219
100
AcDbEntity
  8
0
  6
Continuous
 62
     7
370
    25
100
AcDbLine
 10
212.8
 20
155.0
 30
0.0
 11
211.0
 21
155.0
 31
0.0
  0
LINE
  5
2CE
330
219
100
AcDbEntity
  8
0
  6
Continuous
 62
     7
370
    25
100
AcDbLine
 10
211.0
 20
203.0
 30
0.0
 11
211.0
 21
154.0
 31
0.0
  0
LINE
  5
2CF
330
219
100
AcDbEntity
  8
0
  6
Continuous
 62
     7
370
    25
100
AcDbLine
 10
214.0
 20
152.8
 30
0.0
 11
216.0
 21
152.8
 31
0.0
  0
LINE
  5
2D0
330
219
100
AcDbEntity
  8
0
  6
Continuous
 62
     7
370
    25
100
AcDbLine
 10
216.0
 20
151.0
 30
0.0
 11
214.0
 21
151.0
 31
0.0
  0
LINE
  5
2D1
330
219
100
AcDbEntity
  8
0
  6
Continuous
 62
     7
370
    25
100
AcDbLine
 10
216.0
 20
188.2
 30
0.0
 11
214.0
 21
188.2
 31
0.0
  0
LINE
  5
2D2
330
219
100
AcDbEntity
  8
0
  6
Continuous
 62
     7
370
    25
100
AcDbLine
 10
216.0
 20
190.0
 30
0.0
 11
214.0
 21
190.0
 31
0.0
  0
LINE
  5
2D3
330
219
100
AcDbEntity
  8
0
  6
Continuous
 62
     7
370
    25
100
AcDbLine
 10
191.0
 20
165.75
 30
0.0
 11
191.0
 21
175.25
 31
0.0
  0
LINE
  5
2D4
330
219
100
AcDbEntity
  8
0
  6
Continuous
 62
     7
370
    25
100
AcDbLine
 10
78.0
 20
-12.0
 30
0.0
 11
78.0
 21
153.0
 31
0.0
  0
LINE
  5
2D5
330
219
100
AcDbEntity
  8
0
  6
Continuous
 62
     7
370
    25
100
AcDbLine
 10
110.0
 20
153.0
 30
0.0
 11
110.0
 21
151.0
 31
0.0
  0
LINE
  5
2D6
330
219
100
AcDbEntity
  8
0
  6
Continuous
 62
     7
370
    25
100
AcDbLine
 10
-85.0
 20
134.0
 30
0.0
 11
-80.0
 21
134.0
 31
0.0
  0
LINE
  5
2D7
330
219
100
AcDbEntity
  8
0
  6
Continuous
 62
     7
370
    25
100
AcDbLine
 10
80.0
 20
134.0
 30
0.0
 11
85.0
 21
134.0
 31
0.0
  0
LINE
  5
2D8
330
219
100
AcDbEntity
  8
0
  6
Continuous
 62
     7
370
    25
100
AcDbLine
 10
-78.0
 20
153.0
 30
0.0
 11
-78.0
 21
-12.0
 31
0.0
  0
LINE
  5
2D9
330
219
100
AcDbEntity
  8
0
  6
Continuous
 62
     7
370
    25
100
AcDbLine
 10
80.0
 20
128.4775180146
 30
0.0
 11
80.0
 21
-12.0
 31
0.0
  0
LINE
  5
2DA
330
219
100
AcDbEntity
  8
0
  6
Continuous
 62
     7
370
    25
100
AcDbLine
 10
-80.0
 20
-12.0
 30
0.0
 11
-80.0
 21
128.4775180146
 31
0.0
  0
LINE
  5
2DB
330
219
100
AcDbEntity
  8
0
  6
Continuous
 62
     7
370
    25
100
AcDbLine
 10
-110.0
 20
151.0
 30
0.0
 11
-110.0
 21
153.0
 31
0.0
  0
LINE
  5
2DC
330
219
100
AcDbEntity
  8
0
  6
Continuous
 62
     7
370
    25
100
AcDbLine
 10
216.0
 20
159.0
 30
0.0
 11
212.8
 21
159.0
 31
0.0
  0
LINE
  5
2DD
330
219
100
AcDbEntity
  8
0
  6
Continuous
 62
     7
370
    25
100
AcDbLine
 10
209.1
 20
159.0
 30
0.0
 11
-209.1
 21
159.0
 31
0.0
  0
LINE
  5
2DE
330
219
100
AcDbEntity
  8
0
  6
Continuous
 62
     7
370
    25
100
AcDbLine
 10
-212.8
 20
159.0
 30
0.0
 11
-216.0
 21
159.0
 31
0.0
  0
LINE
  5
2DF
330
219
100
AcDbEntity
  8
0
  6
Continuous
 62
     7
370
    25
100
AcDbLine
 10
234.2
 20
203.0
 30
0.0
 11
234.2
 21
-167.2
 31
0.0
  0
LINE
  5
2E0
330
219
100
AcDbEntity
  8
0
  6
Continuous
 62
     7
370
    25
100
AcDbLine
 10
-234.2
 20
-159.0
 30
0.0
 11
234.2
 21
-159.0
 31
0.0
  0
LINE
  5
2E1
330
219
100
AcDbEntity
  8
0
  6
Continuous
 62
     7
370
    25
100
AcDbLine
 10
216.0
 20
203.0
 30
0.0
 11
216.0
 21
-159.0
 31
0.0
  0
LINE
  5
2E2
330
219
100
AcDbEntity
  8
0
  6
Continuous
 62
     7
370
    25
100
AcDbLine
 10
216.0
 20
203.0
 30
0.0
 11
234.2
 21
203.0
 31
0.0
  0
LINE
  5
2E3
330
219
100
AcDbEntity
  8
0
  6
Continuous
 62
     7
370
    25
100
AcDbLine
 10
233.5
 20
-159.0
 30
0.0
 11
233.5
 21
-167.5
 31
0.0
  0
LINE
  5
2E4
330
219
100
AcDbEntity
  8
0
  6
Continuous
 62
     7
370
    25
100
AcDbLine
 10
-223.5
 20
-177.5
 30
0.0
 11
223.5
 21
-177.5
 31
0.0
  0
LINE
  5
2E5
330
219
100
AcDbEntity
  8
0
  6
Continuous
 62
     7
370
    25
100
AcDbLine
 10
-233.5
 20
-159.0
 30
0.0
 11
-233.5
 21
-167.5
 31
0.0
  0
LINE
  5
2E6
330
219
100
AcDbEntity
  8
0
  6
Continuous
 62
     7
370
    25
100
AcDbLine
 10
209.1
 20
155.1
 30
0.0
 11
211.0
 21
155.1
 31
0.0
  0
LINE
  5
2E7
330
219
100
AcDbEntity
  8
0
  6
Continuous
 62
     7
370
    25
100
AcDbLine
 10
209.1
 20
155.1
 30
0.0
 11
209.1
 21
201.1
 31
0.0
  0
LINE
  5
2E8
330
219
100
AcDbEntity
  8
0
  6
Continuous
 62
     7
370
    25
100
AcDbLine
 10
163.1
 20
201.1
 30
0.0
 11
163.1
 21
203.0
 31
0.0
  0
LINE
  5
2E9
330
219
100
AcDbEntity
  8
0
  6
Continuous
 62
     7
370
    25
100
AcDbLine
 10
209.1
 20
201.1
 30
0.0
 11
163.1
 21
201.1
 31
0.0
  0
LINE
  5
2EA
330
219
100
AcDbEntity
  8
0
  6
Continuous
 62
     7
370
    25
100
AcDbLine
 10
211.0
 20
203.0
 30
0.0
 11
163.1
 21
203.0
 31
0.0
  0
LINE
  5
2EB
330
219
100
AcDbEntity
  8
0
  6
Continuous
 62
     7
370
    25
100
AcDbLine
 10
210.0
 20
147.0
 30
0.0
 11
211.2
 21
147.0
 31
0.0
  0
LINE
  5
2EC
330
219
100
AcDbEntity
  8
0
  6
Continuous
 62
     7
370
    25
100
AcDbLine
 10
210.0
 20
127.0
 30
0.0
 11
211.2
 21
127.0
 31
0.0
  0
LINE
  5
2ED
330
219
100
AcDbEntity
  8
0
  6
Continuous
 62
     7
370
    25
100
AcDbLine
 10
208.2
 20
153.0
 30
0.0
 11
174.2999687854
 21
153.0
 31
0.0
  0
LINE
  5
2EE
330
219
100
AcDbEntity
  8
0
  6
Continuous
 62
     7
370
    25
100
AcDbLine
 10
174.2999687854
 20
151.0
 30
0.0
 11
174.2999687854
 21
154.5
 31
0.0
  0
LINE
  5
2EF
330
219
100
AcDbEntity
  8
0
  6
Continuous
 62
     7
370
    25
100
AcDbLine
 10
201.2
 20
151.0
 30
0.0
 11
201.2
 21
153.0
 31
0.0
  0
LINE
  5
2F0
330
219
100
AcDbEntity
  8
0
  6
Continuous
 62
     7
370
    25
100
AcDbLine
 10
155.2999687854
 20
153.0
 30
0.0
 11
155.2999687854
 21
154.5
 31
0.0
  0
LINE
  5
2F1
330
219
100
AcDbEntity
  8
0
  6
Continuous
 62
     7
370
    25
100
AcDbLine
 10
174.2999687854
 20
154.5
 30
0.0
 11
155.2999687854
 21
154.5
 31
0.0
  0
LINE
  5
2F2
330
219
100
AcDbEntity
  8
0
  6
Continuous
 62
     7
370
    25
100
AcDbLine
 10
208.2
 20
153.0
 30
0.0
 11
208.2
 21
151.0
 31
0.0
  0
LINE
  5
2F3
330
219
100
AcDbEntity
  8
0
  6
Continuous
 62
     7
370
    25
100
AcDbLine
 10
-199.8
 20
151.0
 30
0.0
 11
-199.8
 21
153.0
 31
0.0
  0
LINE
  5
2F4
330
219
100
AcDbEntity
  8
0
  6
Continuous
 62
     7
370
    25
100
AcDbLine
 10
-172.8999687854
 20
154.5
 30
0.0
 11
-172.8999687854
 21
151.0
 31
0.0
  0
LINE
  5
2F5
330
219
100
AcDbEntity
  8
0
  6
Continuous
 62
     7
370
    25
100
AcDbLine
 10
-206.8
 20
153.0
 30
0.0
 11
-172.8999687854
 21
153.0
 31
0.0
  0
LINE
  5
2F6
330
219
100
AcDbEntity
  8
0
  6
Continuous
 62
     7
370
    25
100
AcDbLine
 10
-153.8999687854
 20
154.5
 30
0.0
 11
-172.8999687854
 21
154.5
 31
0.0
  0
LINE
  5
2F7
330
219
100
AcDbEntity
  8
0
  6
Continuous
 62
     7
370
    25
100
AcDbLine
 10
-153.8999687854
 20
153.0
 30
0.0
 11
-153.8999687854
 21
154.5
 31
0.0
  0
LINE
  5
2F8
330
219
100
AcDbEntity
  8
0
  6
Continuous
 62
     7
370
    25
100
AcDbLine
 10
-206.8
 20
153.0
 30
0.0
 11
-206.8
 21
151.0
 31
0.0
  0
LINE
  5
2F9
330
219
100
AcDbEntity
  8
0
  6
Continuous
 62
     7
370
    25
100
AcDbLine
 10
216.0
 20
-140.8
 30
0.0
 11
-216.0
 21
-140.8
 31
0.0
  0
LINE
  5
2FA
330
219
100
AcDbEntity
  8
0
  6
Continuous
 62
     7
370
    25
100
AcDbLine
 10
203.0603485773
 20
135.0
 30
0.0
 11
203.0603485773
 21
151.0
 31
0.0
  0
LINE
  5
2FB
330
219
100
AcDbEntity
  8
0
  6
Continuous
 62
     7
370
    25
100
AcDbLine
 10
175.0
 20
135.0
 30
0.0
 11
175.0
 21
151.0
 31
0.0
  0
LINE
  5
2FC
330
219
100
AcDbEntity
  8
0
  6
Continuous
 62
     7
370
    25
100
AcDbLine
 10
210.0
 20
151.0
 30
0.0
 11
210.0
 21
-140.8
 31
0.0
  0
LINE
  5
2FD
330
219
100
AcDbEntity
  8
0
  6
Continuous
 62
     7
370
    25
100
AcDbLine
 10
182.7134404858
 20
135.0
 30
0.0
 11
182.7134404858
 21
-140.8
 31
0.0
  0
LINE
  5
2FE
330
219
100
AcDbEntity
  8
0
  6
Continuous
 62
     7
370
    25
100
AcDbLine
 10
178.3300779917
 20
135.0
 30
0.0
 11
178.3300779917
 21
-140.8
 31
0.0
  0
LINE
  5
2FF
330
219
100
AcDbEntity
  8
0
  6
Continuous
 62
     7
370
    25
100
AcDbLine
 10
-210.0
 20
151.0
 30
0.0
 11
-210.0
 21
-140.8
 31
0.0
  0
LINE
  5
300
330
219
100
AcDbEntity
  8
0
  6
Continuous
 62
     7
370
    25
100
AcDbLine
 10
-210.0
 20
151.0
 30
0.0
 11
-80.0
 21
151.0
 31
0.0
  0
LINE
  5
301
330
219
100
AcDbEntity
  8
0
  6
Continuous
 62
     7
370
    25
100
AcDbLine
 10
-203.0832161278
 20
135.0
 30
0.0
 11
-203.0832161278
 21
151.0
 31
0.0
  0
LINE
  5
302
330
219
100
AcDbEntity
  8
0
  6
Continuous
 62
     7
370
    25
100
AcDbLine
 10
-175.0
 20
135.0
 30
0.0
 11
-175.0
 21
151.0
 31
0.0
  0
LINE
  5
303
330
219
100
AcDbEntity
  8
0
  6
Continuous
 62
     7
370
    25
100
AcDbLine
 10
-183.2093750222
 20
135.0
 30
0.0
 11
-183.2093750222
 21
-140.8
 31
0.0
  0
LINE
  5
304
330
219
100
AcDbEntity
  8
0
  6
Continuous
 62
     7
370
    25
100
AcDbLine
 10
-179.8300779917
 20
135.0
 30
0.0
 11
-179.8300779917
 21
-140.8
 31
0.0
  0
LINE
  5
305
330
219
100
AcDbEntity
  8
0
  6
Continuous
 62
     8
370
    25
100
AcDbLine
 10
80.0
 20
-12.0
 30
0.0
 11
80.62158577
 21
-12.0
 31
0.0
  0
LINE
  5
306
330
219
100
AcDbEntity
  8
0
  6
Continuous
 62
     8
370
    25
100
AcDbLine
 10
-80.0
 20
-12.0
 30
0.0
 11
-80.62158577
 21
-12.0
 31
0.0
  0
LINE
  5
307
330
219
100
AcDbEntity
  8
0
  6
Continuous
 62
     8
370
    25
100
AcDbLine
 10
196.2876565717
 20
-140.8
 30
0.0
 11
196.2876565717
 21
135.0
 31
0.0
  0
LINE
  5
308
330
219
100
AcDbEntity
  8
0
  6
Continuous
 62
     8
370
    25
100
AcDbLine
 10
-196.3221109623
 20
-140.8
 30
0.0
 11
-196.3221109623
 21
135.0
 31
0.0
  0
ARC
  5
309
330
219
100
AcDbEntity
  8
0
  6
Continuous
 62
     7
370
    25
100
AcDbCircle
 10
0.0
 20
-14.0
 30
0.0
 40
79.99999999999994
100
AcDbArc
 50
197.4275917265
 51
342.5724082735
  0
ARC
  5
30A
330
219
100
AcDbEntity
  8
0
  6
Continuous
 62
     7
370
    25
100
AcDbCircle
 10
-214.0
 20
154.0
 30
0.0
 40
3.0
100
AcDbArc
 50
270.0
 51
0.0
  0
ARC
  5
30B
330
219
100
AcDbEntity
  8
0
  6
Continuous
 62
     7
370
    25
100
AcDbCircle
 10
-214.0
 20
154.0
 30
0.0
 40
1.199999999999989
100
AcDbArc
 50
270.0
 51
0.0
  0
ARC
  5
30C
330
219
100
AcDbEntity
  8
0
  6
Continuous
 62
     7
370
    25
100
AcDbCircle
 10
-214.0
 20
187.0
 30
0.0
 40
3.000000000000057
100
AcDbArc
 50
0.0
 51
90.0
  0
ARC
  5
30D
330
219
100
AcDbEntity
  8
0
  6
Continuous
 62
     7
370
    25
100
AcDbCircle
 10
-214.0
 20
187.0
 30
0.0
 40
1.200000000000102
100
AcDbArc
 50
0.0
 51
90.0
  0
ARC
  5
30E
330
219
100
AcDbEntity
  8
0
  6
Continuous
 62
     7
370
    25
100
AcDbCircle
 10
214.0
 20
154.0
 30
0.0
 40
1.200000000000074
100
AcDbArc
 50
180.0
 51
270.0
  0
ARC
  5
30F
330
219
100
AcDbEntity
  8
0
  6
Continuous
 62
     7
370
    25
100
AcDbCircle
 10
214.0
 20
154.0
 30
0.0
 40
3.000000000000028
100
AcDbArc
 50
180.0
 51
270.0
  0
ARC
  5
310
330
219
100
AcDbEntity
  8
0
  6
Continuous
 62
     7
370
    25
100
AcDbCircle
 10
214.0
 20
187.0
 30
0.0
 40
2.999999999999972
100
AcDbArc
 50
90.0
 51
180.0
  0
ARC
  5
311
330
219
100
AcDbEntity
  8
0
  6
Continuous
 62
     7
370
    25
100
AcDbCircle
 10
214.0
 20
187.0
 30
0.0
 40
1.199999999999989
100
AcDbArc
 50
90.0
 51
180.0
  0
ARC
  5
312
330
219
100
AcDbEntity
  8
0
  6
Continuous
 62
     7
370
    25
100
AcDbCircle
 10
0.0
 20
-12.0
 30
0.0
 40
78.0
100
AcDbArc
 50
180.0
 51
0.0
  0
ARC
  5
313
330
219
100
AcDbEntity
  8
0
  6
Continuous
 62
     7
370
    25
100
AcDbCircle
 10
-85.5497807279
 20
128.4775180146
 30
0.0
 40
5.549780727858932
100
AcDbArc
 50
0.0
 51
84.3147545378
  0
ARC
  5
314
330
219
100
AcDbEntity
  8
0
  6
Continuous
 62
     7
370
    25
100
AcDbCircle
 10
85.5497807279
 20
128.4775180146
 30
0.0
 40
5.549780727858902
100
AcDbArc
 50
95.6852454622
 51
180.0
  0
ARC
  5
315
330
219
100
AcDbEntity
  8
0
  6
Continuous
 62
     7
370
    25
100
AcDbCircle
 10
0.0
 20
-12.0
 30
0.0
 40
80.00000000000003
100
AcDbArc
 50
180.0
 51
0.0
  0
ARC
  5
316
330
219
100
AcDbEntity
  8
0
  6
Continuous
 62
     7
370
    25
100
AcDbCircle
 10
224.2
 20
-167.2
 30
0.0
 40
10.0000000000002
100
AcDbArc
 50
291.0163053833
 51
0.0
  0
ARC
  5
317
330
219
100
AcDbEntity
  8
0
  6
Continuous
 62
     7
370
    25
100
AcDbCircle
 10
223.5
 20
-167.5
 30
0.0
 40
10.00000000000003
100
AcDbArc
 50
270.0
 51
0.0
  0
ARC
  5
318
330
219
100
AcDbEntity
  8
0
  6
Continuous
 62
     7
370
    25
100
AcDbCircle
 10
-223.5
 20
-167.5
 30
0.0
 40
10.00000000000003
100
AcDbArc
 50
180.0
 51
270.0
  0
VIEWPORT
  5
4BD
330
219
100
AcDbEntity
  8
0
100
AcDbViewport
 10
0.0
 20
0.0
 30
0.0
 40
205.6
 41
156.0
 68
     1
 69
     1
 12
0.0
 22
295.25
 13
0.0
 23
0.0
 14
10.0
 24
10.0
 15
10.0
 25
10.0
 16
0.0
 26
0.0
 36
1.0
 17
0.0
 27
0.0
 37
0.0
 42
50.0
 43
0.0
 44
0.0
 45
621.69
 50
0.0
 51
0.0
 72
   100
 90
   557152
  1

281
     0
 71
     1
 74
     0
110
0.0
120
0.0
130
0.0
111
1.0
121
0.0
131
0.0
112
0.0
122
1.0
132
0.0
 79
     0
146
0.0
  0
ENDBLK
  5
21C
330
219
100
AcDbEntity
  8
0
100
AcDbBlockEnd
  0
BLOCK
  5
31B
330
319
100
AcDbEntity
  8
0
100
AcDbBlockBegin
  2
*Paper_Space2
 70
     0
 10
0.0
 20
0.0
 30
0.0
  3
*Paper_Space2
  1

  0
LWPOLYLINE
  5
32D
330
319
100
AcDbEntity
  8
0
  6
Continuous
 62
     7
370
    25
100
AcDbPolyline
 90
       10
 70
   128
 43
0.0
 10
16.2634559673
 20
492.8017421153
 10
16.9889902552
 20
492.5306303953
 10
17.6270144003
 20
492.5876793683
 10
18.1005732744
 20
492.9660080861
 10
18.3525486883
 20
493.6199845218
 10
18.3525486883
 20
494.4707294656
 10
18.1005732744
 20
495.4156305217
 10
17.6270144003
 20
496.3407186774
 10
16.9889902552
 20
497.1344146483
 10
16.2634559673
 20
497.7009869866
  0
LWPOLYLINE
  5
32F
330
319
100
AcDbEntity
  8
0
  6
Continuous
 62
     7
370
    25
100
AcDbPolyline
 90
       10
 70
   128
 43
0.0
 10
4.9497474683
 20
504.2322518812
 10
4.2242131804
 20
504.5033636011
 10
3.5861890353
 20
504.4463146282
 10
3.1126301612
 20
504.0679859104
 10
2.8606547473
 20
503.4140094746
 10
2.8606547473
 20
502.5632645308
 10
3.1126301612
 20
501.6183634747
 10
3.5861890353
 20
500.693275319
 10
4.2242131804
 20
499.8995793481
 10
4.9497474683
 20
499.3330070098
  0
LWPOLYLINE
  5
331
330
319
100
AcDbEntity
  8
0
  6
Continuous
 62
     7
370
    25
100
AcDbPolyline
 90
       10
 70
   128
 43
0.0
 10
8.4852813742
 20
521.7882110869
 10
8.6132126446
 20
520.8765377199
 10
8.9815760565
 20
519.9271193151
 10
9.545941546
 20
519.054469744
 10
10.2382383059
 20
518.3638434238
 10
10.9749651297
 20
517.9385400813
 10
11.6672618896
 20
517.8298575763
 10
12.2316273791
 20
518.050904623
 10
12.599990791
 20
518.5750196852
 10
12.7279220614
 20
519.3389867514
  0
LWPOLYLINE
  5
333
330
319
100
AcDbEntity
  8
0
  6
Continuous
 62
     7
370
    25
100
AcDbPolyline
 90
       10
 70
   128
 43
0.0
 10
12.7279220614
 20
527.5043948703
 10
12.599990791
 20
528.4160682372
 10
12.2316273791
 20
529.365486642
 10
11.6672618896
 20
530.2381362131
 10
10.9749651297
 20
530.9287625333
 10
10.2382383059
 20
531.3540658758
 10
9.545941546
 20
531.4627483808
 10
8.9815760565
 20
531.2417013341
 10
8.6132126446
 20
530.7175862719
 10
8.4852813742
 20
529.9536192057
  0
LWPOLYLINE
  5
335
330
319
100
AcDbEntity
  8
0
  6
Continuous
 62
     7
370
    25
100
AcDbPolyline
 90
       10
 70
   128
 43
0.0
 10
16.2634559673
 20
545.060354076
 10
16.9889902552
 20
544.789242356
 10
17.6270144003
 20
544.8462913289
 10
18.1005732744
 20
545.2246200467
 10
18.3525486883
 20
545.8785964825
 10
18.3525486883
 20
546.7293414263
 10
18.1005732744
 20
547.6742424824
 10
17.6270144003
 20
548.5993306381
 10
16.9889902552
 20
549.393026609
 10
16.2634559673
 20
549.9595989473
  0
LWPOLYLINE
  5
337
330
319
100
AcDbEntity
  8
0
  6
Continuous
 62
     7
370
    25
100
AcDbPolyline
 90
       10
 70
   128
 43
0.0
 10
4.9497474683
 20
556.4908638418
 10
4.2242131804
 20
556.7619755618
 10
3.5861890353
 20
556.7049265889
 10
3.1126301612
 20
556.3265978711
 10
2.8606547473
 20
555.6726214353
 10
2.8606547473
 20
554.8218764915
 10
3.1126301612
 20
553.8769754354
 10
3.5861890353
 20
552.9518872797
 10
4.2242131804
 20
552.1581913088
 10
4.9497474683
 20
551.5916189705
  0
LWPOLYLINE
  5
33C
330
319
100
AcDbEntity
  8
0
  6
Continuous
 62
     7
370
    25
100
AcDbPolyline
 90
       12
 70
   128
 43
0.0
 10
-28.9913780286
 20
500.1507421223
 10
-28.8481640634
 20
499.0831871311
 10
-28.4301245115
 20
498.267470421
 10
-27.7711264512
 20
497.7696765085
 10
-26.9245579862
 20
497.6301336959
 10
-25.9590030587
 20
497.860146912
 10
-24.9526851867
 20
498.441081854
 10
-23.9871302592
 20
499.3258746278
 10
-23.1405617942
 20
500.442844585
 10
-22.4815637339
 20
501.7015014625
 10
-22.063524182
 20
502.9998763656
 10
-21.9203102168
 20
504.2327826814
  0
LWPOLYLINE
  5
33F
330
319
100
AcDbEntity
  8
0
  6
Continuous
 62
     7
370
    25
100
AcDbPolyline
 90
       12
 70
   128
 43
0.0
 10
-21.9203102168
 20
545.0598232757
 10
-22.063524182
 20
546.1273782669
 10
-22.4815637339
 20
546.943094977
 10
-23.1405617942
 20
547.4408888895
 10
-23.9871302592
 20
547.5804317021
 10
-24.9526851867
 20
547.350418486
 10
-25.9590030587
 20
546.769483544
 10
-26.9245579862
 20
545.8846907702
 10
-27.7711264512
 20
544.767720813
 10
-28.4301245115
 20
543.5090639355
 10
-28.8481640634
 20
542.2106890324
 10
-28.9913780286
 20
540.9777827166
  0
LWPOLYLINE
  5
34C
330
319
100
AcDbEntity
  8
0
  6
Continuous
 62
     7
370
    25
100
AcDbPolyline
 90
        3
 70
   128
 43
0.0
 10
-23.263813101
 20
545.8354109819
 10
-23.4070270663
 20
546.9029659731
 10
-23.7197166524
 20
547.5776174029
  0
LWPOLYLINE
  5
35D
330
319
100
AcDbEntity
  8
0
  6
Continuous
 62
     7
370
    25
100
AcDbPolyline
 90
        9
 70
   128
 43
0.0
 10
-28.5354744773
 20
498.4085357014
 10
-28.2680608705
 20
498.4057214021
 10
-27.302505943
 20
498.6357346182
 10
-26.2961880709
 20
499.2166695602
 10
-25.3306331435
 20
500.101462334
 10
-24.4840646784
 20
501.2184322912
 10
-23.8250666182
 20
502.4770891687
 10
-23.4070270663
 20
503.7754640718
 10
-23.263813101
 20
505.0083703876
  0
LWPOLYLINE
  5
378
330
319
100
AcDbEntity
  8
0
  6
Continuous
 62
     7
370
    25
100
AcDbPolyline
 90
       18
 70
   128
 43
0.0
 10
-69.5406879164
 20
307.5244322722
 10
-75.8940348428
 20
308.793521701
 10
-82.3244485968
 20
310.3986778581
 10
-88.8218984383
 20
312.3373968757
 10
-95.3762490583
 20
314.606654565
 10
-101.9772763889
 20
317.2029111329
 10
-108.6146835515
 20
320.1221167039
 10
-115.2781169193
 20
323.3597176376
 10
-121.957182267
 20
326.9106636317
 10
-128.6414609855
 20
330.7694156001
 10
-135.3205263332
 20
334.9299543129
 10
-141.983959701
 20
339.3857897861
 10
-148.6213668636
 20
344.1299714054
 10
-155.2223941942
 20
349.1550987677
 10
-161.7767448142
 20
354.4533332256
 10
-168.2741946557
 20
360.0164101147
 10
-174.7046084097
 20
365.8356516453
 10
-181.0579553361
 20
371.9019804389
  0
LWPOLYLINE
  5
379
330
319
100
AcDbEntity
  8
0
  6
Continuous
 62
     7
370
    25
100
AcDbPolyline
 90
       16
 70
   128
 43
0.0
 10
-67.622575969
 20
317.3383451183
 10
-69.4551051792
 20
317.8279916757
 10
-75.9525550207
 20
319.7667106933
 10
-82.5069056407
 20
322.0359683826
 10
-89.1079329713
 20
324.6322249505
 10
-95.7453401339
 20
327.5514305215
 10
-102.4087735017
 20
330.7890314552
 10
-109.0878388494
 20
334.3399774493
 10
-115.7721175679
 20
338.1987294177
 10
-122.4511829156
 20
342.3592681304
 10
-129.1146162834
 20
346.8151036037
 10
-135.7520234461
 20
351.559285223
 10
-142.3530507766
 20
356.5844125853
 10
-148.9074013966
 20
361.8826470432
 10
-155.4048512381
 20
367.4457239323
 10
-157.2373804483
 20
369.0718705652
  0
LWPOLYLINE
  5
37A
330
319
100
AcDbEntity
  8
0
  6
Continuous
 62
     7
370
    25
100
AcDbPolyline
 90
        9
 70
   128
 43
0.0
 10
-283.3376872214
 20
440.4785419647
 10
-284.5813155326
 20
439.6037400928
 10
-285.5054147347
 20
438.6056858368
 10
-286.0744722136
 20
437.522733862
 10
-286.2666194096
 20
436.3965014056
 10
-286.0744722136
 20
435.2702689491
 10
-285.5054147347
 20
434.1873169743
 10
-284.5813155326
 20
433.1892627183
 10
-283.3376872214
 20
432.3144608465
  0
LWPOLYLINE
  5
397
330
319
100
AcDbEntity
  8
0
  6
Continuous
 62
     7
370
    25
100
AcDbPolyline
 90
        9
 70
   128
 43
0.0
 10
-23.263813101
 20
505.4521390652
 10
-23.3345237792
 20
505.412952395
 10
-24.0110189043
 20
504.8670314012
 10
-24.5845237792
 20
504.0934445882
 10
-24.9677274853
 20
503.2099635358
 10
-25.1022907321
 20
502.3510902255
 10
-24.9677274853
 20
501.647580333
 10
-24.5845237792
 20
501.2065368622
 10
-24.5146789307
 20
501.1704773161
  0
LWPOLYLINE
  5
398
330
319
100
AcDbEntity
  8
0
  6
Continuous
 62
     7
370
    25
100
AcDbPolyline
 90
       17
 70
   128
 43
0.0
 10
-23.3345237792
 20
565.0204316627
 10
-22.658028654
 20
565.5663526565
 10
-22.0845237792
 20
566.3399394695
 10
-21.7013200731
 20
567.2234205219
 10
-21.5667568262
 20
568.0822938322
 10
-21.7013200731
 20
568.7858037246
 10
-22.0845237792
 20
569.2268471955
 10
-22.658028654
 20
569.3382793743
 10
-23.3345237792
 20
569.1031357221
 10
-24.0110189043
 20
568.5572147282
 10
-24.5845237792
 20
567.7836279153
 10
-24.9677274853
 20
566.9001468629
 10
-25.1022907321
 20
566.0412735526
 10
-24.9677274853
 20
565.3377636601
 10
-24.5845237792
 20
564.8967201893
 10
-24.0110189043
 20
564.7852880104
 10
-23.3345237792
 20
565.0204316627
  0
LWPOLYLINE
  5
3A7
330
319
100
AcDbEntity
  8
0
  6
Continuous
 62
     7
370
    25
100
AcDbPolyline
 90
       24
 70
   128
 43
0.0
 10
-14.4956890143
 20
520.1125116348
 10
-13.5895071638
 20
520.7794671365
 10
-12.7505326756
 20
521.6846133085
 10
-12.0409884495
 20
522.7608196
 10
-11.5134981348
 20
523.9282687138
 10
-11.207183275
 20
525.1003762898
 10
-11.144761842
 20
526.1902124711
 10
-11.3308633479
 20
527.1169490939
 10
-11.7516854953
 20
527.8118543422
 10
-12.3760178308
 20
528.2233902729
 10
-13.1575564811
 20
528.3210351487
 10
-14.0383382998
 20
528.0975470957
 10
-14.9530397288
 20
527.5695012005
 10
-15.8338215476
 20
526.7760602115
 10
-16.6153601979
 20
525.7760700171
 10
-17.2396925333
 20
524.6436953153
 10
-17.6605146808
 20
523.4629191576
 10
-17.8466161867
 20
522.3213143098
 10
-17.7841947536
 20
521.303548381
 10
-17.4778798938
 20
520.4851044142
 10
-16.9503895791
 20
519.9266826542
 10
-16.240845353
 20
519.6696986885
 10
-15.4018708649
 20
519.733211842
 10
-14.4956890143
 20
520.1125116348
  0
LWPOLYLINE
  5
3AD
330
319
100
AcDbEntity
  8
0
  6
Continuous
 62
     7
370
    25
100
AcDbPolyline
 90
        9
 70
   128
 43
0.0
 10
34.2787817232
 20
389.099512685
 10
34.9303712525
 20
389.552105459
 10
35.4275664489
 20
390.0658654791
 10
35.7535914861
 20
390.6234580062
 10
35.8974459773
 20
391.206069352
 10
35.8542761387
 20
391.7940416699
 10
35.6255385606
 20
392.3675362293
 10
35.2189510608
 20
392.9072027925
 10
34.6482322781
 20
393.3948325097
  0
LWPOLYLINE
  5
3C4
330
319
100
AcDbEntity
  8
0
  6
Continuous
 62
     7
370
    25
100
AcDbPolyline
 90
       18
 70
   128
 43
0.0
 10
-69.0457131696
 20
93.8765752873
 10
-75.399060096
 20
95.1456647162
 10
-81.82947385
 20
96.7508208732
 10
-88.3269236915
 20
98.6895398908
 10
-94.8812743115
 20
100.9587975801
 10
-101.482301642
 20
103.555054148
 10
-108.1197088047
 20
106.474259719
 10
-114.7831421724
 20
109.7118606527
 10
-121.4622075202
 20
113.2628066468
 10
-128.1464862387
 20
117.1215586152
 10
-134.8255515864
 20
121.282097328
 10
-141.4889849541
 20
125.7379328013
 10
-148.1263921168
 20
130.4821144205
 10
-154.7274194474
 20
135.5072417828
 10
-161.2817700674
 20
140.8054762408
 10
-167.7792199089
 20
146.3685531299
 10
-174.2096336628
 20
152.1877946604
 10
-180.5629805893
 20
158.254123454
  0
LWPOLYLINE
  5
3C5
330
319
100
AcDbEntity
  8
0
  6
Continuous
 62
     7
370
    25
100
AcDbPolyline
 90
       18
 70
   128
 43
0.0
 10
-56.62851933
 20
101.3855450936
 10
-62.5297166784
 20
102.5749785338
 10
-68.9601304324
 20
104.1801346908
 10
-75.4575802739
 20
106.1188537084
 10
-82.0119308939
 20
108.3881113977
 10
-88.6129582244
 20
110.9843679656
 10
-95.2503653871
 20
113.9035735366
 10
-101.9137987549
 20
117.1411744703
 10
-108.5928641026
 20
120.6921204644
 10
-115.2771428211
 20
124.5508724328
 10
-121.9562081688
 20
128.7114111456
 10
-128.6196415365
 20
133.1672466188
 10
-135.2570486992
 20
137.9114282381
 10
-141.8580760298
 20
142.9365556004
 10
-148.4124266498
 20
148.2347900583
 10
-154.9098764913
 20
153.7978669474
 10
-161.3402902452
 20
159.617108478
 10
-167.2414875937
 20
165.2410524695
  0
LWPOLYLINE
  5
3C6
330
319
100
AcDbEntity
  8
0
  6
Continuous
 62
     7
370
    25
100
AcDbPolyline
 90
        9
 70
   128
 43
0.0
 10
-282.8427124746
 20
226.8306849798
 10
-284.0863407858
 20
225.9558831079
 10
-285.0104399879
 20
224.9578288519
 10
-285.5794974668
 20
223.8748768771
 10
-285.7716446628
 20
222.7486444207
 10
-285.5794974668
 20
221.6224119642
 10
-285.0104399879
 20
220.5394599894
 10
-284.0863407858
 20
219.5414057335
 10
-282.8427124746
 20
218.6666038616
  0
LWPOLYLINE
  5
3D2
330
319
100
AcDbEntity
  8
0
  6
Continuous
 62
     7
370
    25
100
AcDbPolyline
 90
        9
 70
   128
 43
0.0
 10
-283.5498192558
 20
513.0282130057
 10
-284.793447567
 20
512.1534111338
 10
-285.7175467691
 20
511.1553568779
 10
-286.286604248
 20
510.0724049031
 10
-286.4787514439
 20
508.9461724466
 10
-286.286604248
 20
507.8199399902
 10
-285.7175467691
 20
506.7369880154
 10
-284.793447567
 20
505.7389337594
 10
-283.5498192558
 20
504.8641318875
  0
LINE
  5
3F9
330
319
100
AcDbEntity
  8
0
  6
Continuous
 62
     7
370
    25
100
AcDbLine
 10
-286.2666194096
 20
436.3965014056
 30
0.0
 11
-286.2666194096
 21
236.3440024936
 31
0.0
  0
LINE
  5
3FA
330
319
100
AcDbEntity
  8
0
  6
Continuous
 62
     7
370
    25
100
AcDbLine
 10
-16.091883092
 20
566.3064942858
 30
0.0
 11
-16.091883092
 21
578.6558670208
 31
0.0
  0
LINE
  5
3FB
330
319
100
AcDbEntity
  8
0
  6
Continuous
 62
     7
370
    25
100
AcDbLine
 10
-29.6691287438
 20
527.265841807
 30
0.0
 11
-16.8704960043
 21
519.877348395
 31
0.0
  0
LINE
  5
3FC
330
319
100
AcDbEntity
  8
0
  6
Continuous
 62
     7
370
    25
100
AcDbLine
 10
-12.1208820243
 20
528.1048125876
 30
0.0
 11
-26.263017648
 21
536.2688937058
 31
0.0
  0
LINE
  5
3FD
330
319
100
AcDbEntity
  8
0
  6
Continuous
 62
     7
370
    25
100
AcDbLine
 10
-285.7716446628
 20
222.7486444207
 30
0.0
 11
-285.7716446628
 21
22.6961455087
 31
0.0
  0
LINE
  5
3FE
330
319
100
AcDbEntity
  8
0
  6
Continuous
 62
     7
370
    25
100
AcDbLine
 10
-286.4787514439
 20
508.9461724466
 30
0.0
 11
-286.4787514439
 21
446.0725299314
 31
0.0
  0
LINE
  5
3FF
330
319
100
AcDbEntity
  8
0
  6
Continuous
 62
     7
370
    25
100
AcDbLine
 10
-40.2865061917
 20
450.1035969216
 30
0.0
 11
-101.4075338189
 21
414.8191787223
 31
0.0
  0
LINE
  5
400
330
319
100
AcDbEntity
  8
0
  6
Continuous
 62
     7
370
    25
100
AcDbLine
 10
26.8700576851
 20
552.0019462275
 30
0.0
 11
28.2135605693
 21
552.7775339337
 31
0.0
  0
LINE
  5
401
330
319
100
AcDbEntity
  8
0
  6
Continuous
 62
     7
370
    25
100
AcDbLine
 10
26.8700576851
 20
552.0019462275
 30
0.0
 11
-5.6568542495
 21
570.7793327994
 31
0.0
  0
LINE
  5
402
330
319
100
AcDbEntity
  8
0
  6
Continuous
 62
     7
370
    25
100
AcDbLine
 10
-38.1837661841
 20
552.0019462275
 30
0.0
 11
-5.6568542495
 21
570.7793327994
 31
0.0
  0
LINE
  5
403
330
319
100
AcDbEntity
  8
0
  6
Continuous
 62
     7
370
    25
100
AcDbLine
 10
-39.5272690683
 20
552.7775339337
 30
0.0
 11
-38.1837661841
 21
552.0019462275
 31
0.0
  0
LINE
  5
404
330
319
100
AcDbEntity
  8
0
  6
Continuous
 62
     7
370
    25
100
AcDbLine
 10
-39.5272690683
 20
552.7775339337
 30
0.0
 11
-5.6568542495
 21
572.3305082118
 31
0.0
  0
LINE
  5
405
330
319
100
AcDbEntity
  8
0
  6
Continuous
 62
     7
370
    25
100
AcDbLine
 10
28.2135605693
 20
552.7775339337
 30
0.0
 11
-5.6568542495
 21
572.3305082118
 31
0.0
  0
LINE
  5
406
330
319
100
AcDbEntity
  8
0
  6
Continuous
 62
     7
370
    25
100
AcDbLine
 10
26.8700576851
 20
478.5132731577
 30
0.0
 11
26.8700576851
 21
552.0019462275
 31
0.0
  0
LINE
  5
407
330
319
100
AcDbEntity
  8
0
  6
Continuous
 62
     7
370
    25
100
AcDbLine
 10
-5.6568542495
 20
497.2906597297
 30
0.0
 11
26.8700576851
 21
478.5132731577
 31
0.0
  0
LINE
  5
408
330
319
100
AcDbEntity
  8
0
  6
Continuous
 62
     7
370
    25
100
AcDbLine
 10
-5.6568542495
 20
570.7793327994
 30
0.0
 11
-5.6568542495
 21
497.2906597297
 31
0.0
  0
LINE
  5
409
330
319
100
AcDbEntity
  8
0
  6
Continuous
 62
     7
370
    25
100
AcDbLine
 10
16.2634559673
 20
497.7009869866
 30
0.0
 11
4.9497474683
 21
504.2322518812
 31
0.0
  0
LINE
  5
40A
330
319
100
AcDbEntity
  8
0
  6
Continuous
 62
     7
370
    25
100
AcDbLine
 10
4.9497474683
 20
499.3330070098
 30
0.0
 11
16.2634559673
 21
492.8017421153
 31
0.0
  0
LINE
  5
40B
330
319
100
AcDbEntity
  8
0
  6
Continuous
 62
     7
370
    25
100
AcDbLine
 10
12.7279220614
 20
519.3389867514
 30
0.0
 11
12.7279220614
 21
527.5043948703
 31
0.0
  0
LINE
  5
40C
330
319
100
AcDbEntity
  8
0
  6
Continuous
 62
     7
370
    25
100
AcDbLine
 10
8.4852813742
 20
529.9536192057
 30
0.0
 11
8.4852813742
 21
521.7882110869
 31
0.0
  0
LINE
  5
40D
330
319
100
AcDbEntity
  8
0
  6
Continuous
 62
     7
370
    25
100
AcDbLine
 10
16.2634559673
 20
549.9595989473
 30
0.0
 11
4.9497474683
 21
556.4908638418
 31
0.0
  0
LINE
  5
40E
330
319
100
AcDbEntity
  8
0
  6
Continuous
 62
     7
370
    25
100
AcDbLine
 10
4.9497474683
 20
551.5916189705
 30
0.0
 11
16.2634559673
 21
545.060354076
 31
0.0
  0
LINE
  5
40F
330
319
100
AcDbEntity
  8
0
  6
Continuous
 62
     7
370
    25
100
AcDbLine
 10
26.8700576851
 20
478.5132731577
 30
0.0
 11
28.2135605693
 21
479.288860864
 31
0.0
  0
LINE
  5
410
330
319
100
AcDbEntity
  8
0
  6
Continuous
 62
     7
370
    25
100
AcDbLine
 10
28.2135605693
 20
479.288860864
 30
0.0
 11
28.2135605693
 21
552.7775339337
 31
0.0
  0
LINE
  5
411
330
319
100
AcDbEntity
  8
0
  6
Continuous
 62
     7
370
    25
100
AcDbLine
 10
-28.9913780286
 20
516.48155836
 30
0.0
 11
-28.9913780286
 21
500.1507421223
 31
0.0
  0
LINE
  5
412
330
319
100
AcDbEntity
  8
0
  6
Continuous
 62
     7
370
    25
100
AcDbLine
 10
-21.9203102168
 20
504.2327826814
 30
0.0
 11
-21.9203102168
 21
522.7925440881
 31
0.0
  0
LINE
  5
413
330
319
100
AcDbEntity
  8
0
  6
Continuous
 62
     7
370
    25
100
AcDbLine
 10
-21.9203102168
 20
533.7619020686
 30
0.0
 11
-21.9203102168
 21
545.0598232757
 31
0.0
  0
LINE
  5
414
330
319
100
AcDbEntity
  8
0
  6
Continuous
 62
     7
370
    25
100
AcDbLine
 10
-28.9913780286
 20
540.9777827166
 30
0.0
 11
-28.9913780286
 21
533.7469545784
 31
0.0
  0
LINE
  5
415
330
319
100
AcDbEntity
  8
0
  6
Continuous
 62
     7
370
    25
100
AcDbLine
 10
-28.9913780286
 20
526.8745846473
 30
0.0
 11
-28.9913780286
 21
524.6469664789
 31
0.0
  0
LINE
  5
416
330
319
100
AcDbEntity
  8
0
  6
Continuous
 62
     7
370
    25
100
AcDbLine
 10
-28.9913780286
 20
524.6469664789
 30
0.0
 11
-38.1837661841
 21
519.340313752
 31
0.0
  0
LINE
  5
417
330
319
100
AcDbEntity
  8
0
  6
Continuous
 62
     7
370
    25
100
AcDbLine
 10
-38.1837661841
 20
552.0019462275
 30
0.0
 11
-38.1837661841
 21
519.340313752
 31
0.0
  0
LINE
  5
418
330
319
100
AcDbEntity
  8
0
  6
Continuous
 62
     7
370
    25
100
AcDbLine
 10
-38.1837661841
 20
478.5132731577
 30
0.0
 11
-5.6568542495
 21
497.2906597297
 31
0.0
  0
LINE
  5
419
330
319
100
AcDbEntity
  8
0
  6
Continuous
 62
     7
370
    25
100
AcDbLine
 10
-38.1837661841
 20
511.1749056332
 30
0.0
 11
-38.1837661841
 21
478.5132731577
 31
0.0
  0
LINE
  5
41A
330
319
100
AcDbEntity
  8
0
  6
Continuous
 62
     7
370
    25
100
AcDbLine
 10
-38.1837661841
 20
511.1749056332
 30
0.0
 11
-28.9913780286
 21
516.48155836
 31
0.0
  0
LINE
  5
41B
330
319
100
AcDbEntity
  8
0
  6
Continuous
 62
     7
370
    25
100
AcDbLine
 10
-39.5272690683
 20
520.1159014583
 30
0.0
 11
-38.1837661841
 21
519.340313752
 31
0.0
  0
LINE
  5
41C
330
319
100
AcDbEntity
  8
0
  6
Continuous
 62
     7
370
    25
100
AcDbLine
 10
-39.5272690683
 20
520.1159014583
 30
0.0
 11
-39.5272690683
 21
552.7775339337
 31
0.0
  0
LINE
  5
41D
330
319
100
AcDbEntity
  8
0
  6
Continuous
 62
     7
370
    25
100
AcDbLine
 10
17.6069588515
 20
545.8359417822
 30
0.0
 11
16.2634559673
 21
545.060354076
 31
0.0
  0
LINE
  5
41E
330
319
100
AcDbEntity
  8
0
  6
Continuous
 62
     7
370
    25
100
AcDbLine
 10
17.6069588515
 20
545.8359417822
 30
0.0
 11
18.2763006088
 21
545.5746770937
 31
0.0
  0
LINE
  5
41F
330
319
100
AcDbEntity
  8
0
  6
Continuous
 62
     7
370
    25
100
AcDbLine
 10
-23.263813101
 20
545.8354109819
 30
0.0
 11
-21.9203102168
 21
545.0598232757
 31
0.0
  0
LINE
  5
420
330
319
100
AcDbEntity
  8
0
  6
Continuous
 62
     7
370
    25
100
AcDbLine
 10
6.2932503526
 20
552.3672066768
 30
0.0
 11
4.9497474683
 21
551.5916189705
 31
0.0
  0
LINE
  5
421
330
319
100
AcDbEntity
  8
0
  6
Continuous
 62
     7
370
    25
100
AcDbLine
 10
6.2932503526
 20
552.3672066768
 30
0.0
 11
17.6069588515
 21
545.8359417822
 31
0.0
  0
LINE
  5
422
330
319
100
AcDbEntity
  8
0
  6
Continuous
 62
     7
370
    25
100
AcDbLine
 10
-23.263813101
 20
505.0083703876
 30
0.0
 11
-21.9203102168
 21
504.2327826814
 31
0.0
  0
LINE
  5
423
330
319
100
AcDbEntity
  8
0
  6
Continuous
 62
     7
370
    25
100
AcDbLine
 10
-23.263813101
 20
505.0083703876
 30
0.0
 11
-23.263813101
 21
523.5681317944
 31
0.0
  0
LINE
  5
424
330
319
100
AcDbEntity
  8
0
  6
Continuous
 62
     7
370
    25
100
AcDbLine
 10
-23.263813101
 20
534.5374897748
 30
0.0
 11
-23.263813101
 21
545.8354109819
 31
0.0
  0
LINE
  5
425
330
319
100
AcDbEntity
  8
0
  6
Continuous
 62
     7
370
    25
100
AcDbLine
 10
-39.5272690683
 20
511.9504933394
 30
0.0
 11
-38.1837661841
 21
511.1749056332
 31
0.0
  0
LINE
  5
426
330
319
100
AcDbEntity
  8
0
  6
Continuous
 62
     7
370
    25
100
AcDbLine
 10
-38.1837661841
 20
478.5132731577
 30
0.0
 11
-39.5272690683
 21
479.288860864
 31
0.0
  0
LINE
  5
427
330
319
100
AcDbEntity
  8
0
  6
Continuous
 62
     7
370
    25
100
AcDbLine
 10
-39.5272690683
 20
479.288860864
 30
0.0
 11
-39.5272690683
 21
511.9504933394
 31
0.0
  0
LINE
  5
428
330
319
100
AcDbEntity
  8
0
  6
Continuous
 62
     7
370
    25
100
AcDbLine
 10
-30.3348809129
 20
517.2571460662
 30
0.0
 11
-28.9913780286
 21
516.48155836
 31
0.0
  0
LINE
  5
429
330
319
100
AcDbEntity
  8
0
  6
Continuous
 62
     7
370
    25
100
AcDbLine
 10
-39.5272690683
 20
511.9504933394
 30
0.0
 11
-30.3348809129
 21
517.2571460662
 31
0.0
  0
LINE
  5
42A
330
319
100
AcDbEntity
  8
0
  6
Continuous
 62
     7
370
    25
100
AcDbLine
 10
9.8287842585
 20
530.729206912
 30
0.0
 11
8.4852813742
 21
529.9536192057
 31
0.0
  0
LINE
  5
42B
330
319
100
AcDbEntity
  8
0
  6
Continuous
 62
     7
370
    25
100
AcDbLine
 10
9.9372599605
 20
531.4398941622
 30
0.0
 11
9.8287842585
 21
530.729206912
 31
0.0
  0
LINE
  5
42C
330
319
100
AcDbEntity
  8
0
  6
Continuous
 62
     7
370
    25
100
AcDbLine
 10
9.8287842585
 20
522.5637987931
 30
0.0
 11
8.4852813742
 21
521.7882110869
 31
0.0
  0
LINE
  5
42D
330
319
100
AcDbEntity
  8
0
  6
Continuous
 62
     7
370
    25
100
AcDbLine
 10
9.8287842585
 20
530.729206912
 30
0.0
 11
9.8287842585
 21
522.5637987931
 31
0.0
  0
LINE
  5
42E
330
319
100
AcDbEntity
  8
0
  6
Continuous
 62
     7
370
    25
100
AcDbLine
 10
17.6069588515
 20
493.5773298215
 30
0.0
 11
16.2634559673
 21
492.8017421153
 31
0.0
  0
LINE
  5
42F
330
319
100
AcDbEntity
  8
0
  6
Continuous
 62
     7
370
    25
100
AcDbLine
 10
17.6069588515
 20
493.5773298215
 30
0.0
 11
18.2763006088
 21
493.316065133
 31
0.0
  0
LINE
  5
430
330
319
100
AcDbEntity
  8
0
  6
Continuous
 62
     7
370
    25
100
AcDbLine
 10
6.2932503526
 20
500.1085947161
 30
0.0
 11
4.9497474683
 21
499.3330070098
 31
0.0
  0
LINE
  5
431
330
319
100
AcDbEntity
  8
0
  6
Continuous
 62
     7
370
    25
100
AcDbLine
 10
6.2932503526
 20
500.1085947161
 30
0.0
 11
17.6069588515
 21
493.5773298215
 31
0.0
  0
LINE
  5
432
330
319
100
AcDbEntity
  8
0
  6
Continuous
 62
     7
370
    25
100
AcDbLine
 10
-30.7591449816
 20
376.445340585
 30
0.0
 11
-32.8470195082
 21
375.2400362765
 31
0.0
  0
LINE
  5
433
330
319
100
AcDbEntity
  8
0
  6
Continuous
 62
     7
370
    25
100
AcDbLine
 10
-16.9705627485
 20
437.0726664922
 30
0.0
 11
-28.2842712475
 21
430.5414015976
 31
0.0
  0
LINE
  5
434
330
319
100
AcDbEntity
  8
0
  6
Continuous
 62
     7
370
    25
100
AcDbLine
 10
-16.9705627485
 20
437.0726664922
 30
0.0
 11
50.2045814642
 21
398.2932811806
 31
0.0
  0
LINE
  5
435
330
319
100
AcDbEntity
  8
0
  6
Continuous
 62
     7
370
    25
100
AcDbLine
 10
38.1837661841
 20
391.3538122301
 30
0.0
 11
50.2045814642
 21
398.2932811806
 31
0.0
  0
LINE
  5
436
330
319
100
AcDbEntity
  8
0
  6
Continuous
 62
     7
370
    25
100
AcDbLine
 10
-28.2842712475
 20
430.5414015976
 30
0.0
 11
38.8908729653
 21
391.762016286
 31
0.0
  0
LINE
  5
437
330
319
100
AcDbEntity
  8
0
  6
Continuous
 62
     7
370
    25
100
AcDbLine
 10
-9.2002036728
 20
363.9996286819
 30
0.0
 11
-31.6996521491
 21
376.9882838159
 31
0.0
  0
LINE
  5
438
330
319
100
AcDbEntity
  8
0
  6
Continuous
 62
     7
370
    25
100
AcDbLine
 10
-28.2842712475
 20
375.0166263894
 30
0.0
 11
-28.2842712475
 21
431.7662128154
 31
0.0
  0
LINE
  5
439
330
319
100
AcDbEntity
  8
0
  6
Continuous
 62
     7
370
    25
100
AcDbLine
 10
32.7390439689
 20
49.7947489421
 30
0.0
 11
32.7390439689
 21
249.8472478541
 31
0.0
  0
LINE
  5
43A
330
319
100
AcDbEntity
  8
0
  6
Continuous
 62
     7
370
    25
100
AcDbLine
 10
46.8811795927
 20
249.8472478541
 30
0.0
 11
46.8811795927
 21
49.7947489421
 31
0.0
  0
LINE
  5
43B
330
319
100
AcDbEntity
  8
0
  6
Continuous
 62
     7
370
    25
100
AcDbLine
 10
46.8811795927
 20
249.8472478541
 30
0.0
 11
52.6794551984
 21
253.1945211125
 31
0.0
  0
LINE
  5
43C
330
319
100
AcDbEntity
  8
0
  6
Continuous
 62
     7
370
    25
100
AcDbLine
 10
32.7390439689
 20
249.8472478541
 30
0.0
 11
-62.5517552217
 21
304.8574553016
 31
0.0
  0
LINE
  5
43D
330
319
100
AcDbEntity
  8
0
  6
Continuous
 62
     7
370
    25
100
AcDbLine
 10
52.6794551984
 20
253.1945211125
 30
0.0
 11
43.7450319724
 21
258.3522538555
 31
0.0
  0
LINE
  5
43E
330
319
100
AcDbEntity
  8
0
  6
Continuous
 62
     7
370
    25
100
AcDbLine
 10
52.6794551984
 20
53.1420222005
 30
0.0
 11
52.6794551984
 21
253.1945211125
 31
0.0
  0
LINE
  5
43F
330
319
100
AcDbEntity
  8
0
  6
Continuous
 62
     7
370
    25
100
AcDbLine
 10
46.8811795927
 20
49.7947489421
 30
0.0
 11
52.6794551984
 21
53.1420222005
 31
0.0
  0
LINE
  5
440
330
319
100
AcDbEntity
  8
0
  6
Continuous
 62
     7
370
    25
100
AcDbLine
 10
-283.3376872214
 20
232.2619619344
 30
0.0
 11
32.7390439689
 21
49.7947489421
 31
0.0
  0
LINE
  5
441
330
319
100
AcDbEntity
  8
0
  6
Continuous
 62
     7
370
    25
100
AcDbLine
 10
-283.3376872214
 20
432.3144608465
 30
0.0
 11
-283.3376872214
 21
232.2619619344
 31
0.0
  0
LINE
  5
442
330
319
100
AcDbEntity
  8
0
  6
Continuous
 62
     7
370
    25
100
AcDbLine
 10
-188.0468880308
 20
377.3042533989
 30
0.0
 11
-283.3376872214
 21
432.3144608465
 31
0.0
  0
LINE
  5
443
330
319
100
AcDbEntity
  8
0
  6
Continuous
 62
     7
370
    25
100
AcDbLine
 10
-283.3376872214
 20
440.4785419647
 30
0.0
 11
-282.1342264845
 21
441.1732850601
 31
0.0
  0
LINE
  5
444
330
319
100
AcDbEntity
  8
0
  6
Continuous
 62
     7
370
    25
100
AcDbLine
 10
-9.1923881554
 20
660.9619865583
 30
0.0
 11
-265.165042945
 21
513.1921183184
 31
0.0
  0
LINE
  5
445
330
319
100
AcDbEntity
  8
0
  6
Continuous
 62
     7
370
    25
100
AcDbLine
 10
-9.1923881554
 20
432.5824218771
 30
0.0
 11
-9.1923881554
 21
495.2496394501
 31
0.0
  0
LINE
  5
446
330
319
100
AcDbEntity
  8
0
  6
Continuous
 62
     7
370
    25
100
AcDbLine
 10
-9.1923881554
 20
570.2894879323
 30
0.0
 11
-9.1923881554
 21
660.9619865583
 31
0.0
  0
LINE
  5
447
330
319
100
AcDbEntity
  8
0
  6
Continuous
 62
     7
370
    25
100
AcDbLine
 10
-265.165042945
 20
513.1921183184
 30
0.0
 11
-265.165042945
 21
509.3543765025
 31
0.0
  0
LINE
  5
448
330
319
100
AcDbEntity
  8
0
  6
Continuous
 62
     7
370
    25
100
AcDbLine
 10
-9.1923881554
 20
660.9619865583
 30
0.0
 11
-22.061731573
 21
668.3913003759
 31
0.0
  0
LINE
  5
449
330
319
100
AcDbEntity
  8
0
  6
Continuous
 62
     7
370
    25
100
AcDbLine
 10
-265.165042945
 20
513.1921183184
 30
0.0
 11
-278.0343863626
 21
520.621432136
 31
0.0
  0
LINE
  5
44A
330
319
100
AcDbEntity
  8
0
  6
Continuous
 62
     7
370
    25
100
AcDbLine
 10
-22.061731573
 20
668.3913003759
 30
0.0
 11
-278.0343863626
 21
520.621432136
 31
0.0
  0
LINE
  5
44B
330
319
100
AcDbEntity
  8
0
  6
Continuous
 62
     7
370
    25
100
AcDbLine
 10
-278.0343863626
 20
520.621432136
 30
0.0
 11
-278.0343863626
 21
516.2122046418
 31
0.0
  0
LINE
  5
44C
330
319
100
AcDbEntity
  8
0
  6
Continuous
 62
     7
370
    25
100
AcDbLine
 10
-44.5477272148
 20
486.879068366
 30
0.0
 11
-44.5477272148
 21
563.960521008
 31
0.0
  0
LINE
  5
44D
330
319
100
AcDbEntity
  8
0
  6
Continuous
 62
     7
370
    25
100
AcDbLine
 10
-40.3050865276
 20
563.960521008
 30
0.0
 11
-40.3050865276
 21
486.879068366
 31
0.0
  0
LINE
  5
44E
330
319
100
AcDbEntity
  8
0
  6
Continuous
 62
     7
370
    25
100
AcDbLine
 10
-45.9619407771
 20
564.7769291198
 30
0.0
 11
-44.5477272148
 21
563.960521008
 31
0.0
  0
LINE
  5
44F
330
319
100
AcDbEntity
  8
0
  6
Continuous
 62
     7
370
    25
100
AcDbLine
 10
-45.9619407771
 20
564.7769291198
 30
0.0
 11
-44.689148571
 21
565.5116964204
 31
0.0
  0
LINE
  5
450
330
319
100
AcDbEntity
  8
0
  6
Continuous
 62
     7
370
    25
100
AcDbLine
 10
-44.689148571
 20
565.5116964204
 30
0.0
 11
-43.2749350086
 21
564.6952883086
 31
0.0
  0
LINE
  5
451
330
319
100
AcDbEntity
  8
0
  6
Continuous
 62
     7
370
    25
100
AcDbLine
 10
-41.5778787338
 20
564.6952883086
 30
0.0
 11
-40.8707719526
 21
565.1034923645
 31
0.0
  0
LINE
  5
452
330
319
100
AcDbEntity
  8
0
  6
Continuous
 62
     7
370
    25
100
AcDbLine
 10
-40.8707719526
 20
565.1034923645
 30
0.0
 11
-39.5979797464
 21
564.3687250639
 31
0.0
  0
LINE
  5
453
330
319
100
AcDbEntity
  8
0
  6
Continuous
 62
     7
370
    25
100
AcDbLine
 10
-40.3050865276
 20
563.960521008
 30
0.0
 11
-39.5979797464
 21
564.3687250639
 31
0.0
  0
LINE
  5
454
330
319
100
AcDbEntity
  8
0
  6
Continuous
 62
     7
370
    25
100
AcDbLine
 10
-39.5979797464
 20
564.3687250639
 30
0.0
 11
-39.5979797464
 21
565.8384985253
 31
0.0
  0
LINE
  5
455
330
319
100
AcDbEntity
  8
0
  6
Continuous
 62
     7
370
    25
100
AcDbLine
 10
-17.6776695297
 20
578.4928242585
 30
0.0
 11
-39.5979797464
 21
565.8384985253
 31
0.0
  0
LINE
  5
456
330
319
100
AcDbEntity
  8
0
  6
Continuous
 62
     7
370
    25
100
AcDbLine
 10
-17.6776695297
 20
578.4928242585
 30
0.0
 11
-17.6776695297
 21
577.0230507971
 31
0.0
  0
LINE
  5
457
330
319
100
AcDbEntity
  8
0
  6
Continuous
 62
     7
370
    25
100
AcDbLine
 10
-17.6776695297
 20
577.0230507971
 30
0.0
 11
-16.9705627485
 21
577.4312548531
 31
0.0
  0
LINE
  5
458
330
319
100
AcDbEntity
  8
0
  6
Continuous
 62
     7
370
    25
100
AcDbLine
 10
-39.5272690683
 20
485.8583193661
 30
0.0
 11
-39.5979797464
 21
485.8174989605
 31
0.0
  0
LINE
  5
459
330
319
100
AcDbEntity
  8
0
  6
Continuous
 62
     7
370
    25
100
AcDbLine
 10
-39.5979797464
 20
485.8174989605
 30
0.0
 11
-39.5979797464
 21
487.2872724219
 31
0.0
  0
LINE
  5
45A
330
319
100
AcDbEntity
  8
0
  6
Continuous
 62
     7
370
    25
100
AcDbLine
 10
-39.5979797464
 20
487.2872724219
 30
0.0
 11
-40.3050865276
 21
486.879068366
 31
0.0
  0
LINE
  5
45B
330
319
100
AcDbEntity
  8
0
  6
Continuous
 62
     7
370
    25
100
AcDbLine
 10
-28.6378246381
 20
536.033730466
 30
0.0
 11
-28.9913780286
 21
535.8080806665
 31
0.0
  0
LINE
  5
45C
330
319
100
AcDbEntity
  8
0
  6
Continuous
 62
     7
370
    25
100
AcDbLine
 10
-40.8707719526
 20
565.1034923645
 30
0.0
 11
-40.8707719526
 21
566.5732658259
 31
0.0
  0
LINE
  5
45D
330
319
100
AcDbEntity
  8
0
  6
Continuous
 62
     7
370
    25
100
AcDbLine
 10
-40.8707719526
 20
566.5732658259
 30
0.0
 11
-39.5979797464
 21
565.8384985253
 31
0.0
  0
LINE
  5
45E
330
319
100
AcDbEntity
  8
0
  6
Continuous
 62
     7
370
    25
100
AcDbLine
 10
-40.8707719526
 20
566.5732658259
 30
0.0
 11
-18.9504617358
 21
579.2275915592
 31
0.0
  0
LINE
  5
45F
330
319
100
AcDbEntity
  8
0
  6
Continuous
 62
     7
370
    25
100
AcDbLine
 10
-18.9504617358
 20
579.2275915592
 30
0.0
 11
-17.6776695297
 21
578.4928242585
 31
0.0
  0
LINE
  5
460
330
319
100
AcDbEntity
  8
0
  6
Continuous
 62
     7
370
    25
100
AcDbLine
 10
-45.9619407771
 20
487.6954764778
 30
0.0
 11
-44.5477272148
 21
486.879068366
 31
0.0
  0
LINE
  5
461
330
319
100
AcDbEntity
  8
0
  6
Continuous
 62
     7
370
    25
100
AcDbLine
 10
-45.9619407771
 20
487.6954764778
 30
0.0
 11
-45.9619407771
 21
564.7769291198
 31
0.0
  0
LINE
  5
462
330
319
100
AcDbEntity
  8
0
  6
Continuous
 62
     7
370
    25
100
AcDbLine
 10
-18.2433549546
 20
579.1457118879
 30
0.0
 11
-19.657568517
 21
579.9621199997
 31
0.0
  0
LINE
  5
463
330
319
100
AcDbEntity
  8
0
  6
Continuous
 62
     7
370
    25
100
AcDbLine
 10
-19.657568517
 20
579.9621199997
 30
0.0
 11
-18.3847763108
 21
580.6968873003
 31
0.0
  0
LINE
  5
464
330
319
100
AcDbEntity
  8
0
  6
Continuous
 62
     7
370
    25
100
AcDbLine
 10
-18.3847763108
 20
580.6968873003
 30
0.0
 11
-16.9705627485
 21
579.8804791885
 31
0.0
  0
LINE
  5
465
330
319
100
AcDbEntity
  8
0
  6
Continuous
 62
     7
370
    25
100
AcDbLine
 10
-19.657568517
 20
578.8193875033
 30
0.0
 11
-19.657568517
 21
579.9621199997
 31
0.0
  0
LINE
  5
466
330
319
100
AcDbEntity
  8
0
  6
Continuous
 62
     7
370
    25
100
AcDbLine
 10
-40.8707719526
 20
486.5522662611
 30
0.0
 11
-39.5979797464
 21
485.8174989605
 31
0.0
  0
LINE
  5
467
330
319
100
AcDbEntity
  8
0
  6
Continuous
 62
     7
370
    25
100
AcDbLine
 10
-40.8707719526
 20
486.5522662611
 30
0.0
 11
-40.8707719526
 21
486.6228503427
 31
0.0
  0
LINE
  5
468
330
319
100
AcDbEntity
  8
0
  6
Continuous
 62
     7
370
    25
100
AcDbLine
 10
-11.2880781994
 20
362.7943243733
 30
0.0
 11
34.2787817232
 21
389.099512685
 31
0.0
  0
LINE
  5
469
330
319
100
AcDbEntity
  8
0
  6
Continuous
 62
     7
370
    25
100
AcDbLine
 10
34.6482322781
 20
393.3948325097
 30
0.0
 11
38.1837661841
 21
391.3538122301
 31
0.0
  0
LINE
  5
46A
330
319
100
AcDbEntity
  8
0
  6
Continuous
 62
     7
370
    25
100
AcDbLine
 10
28.9913780286
 20
410.5394028579
 30
0.0
 11
30.405591591
 21
411.3558109698
 31
0.0
  0
LINE
  5
46B
330
319
100
AcDbEntity
  8
0
  6
Continuous
 62
     7
370
    25
100
AcDbLine
 10
30.405591591
 20
411.3558109698
 30
0.0
 11
53.033008589
 21
398.2932811806
 31
0.0
  0
LINE
  5
46C
330
319
100
AcDbEntity
  8
0
  6
Continuous
 62
     7
370
    25
100
AcDbLine
 10
53.033008589
 20
398.2932811806
 30
0.0
 11
-9.873864637
 21
361.9779162615
 31
0.0
  0
LINE
  5
46D
330
319
100
AcDbEntity
  8
0
  6
Continuous
 62
     7
370
    25
100
AcDbLine
 10
53.033008589
 20
344.1956391711
 30
0.0
 11
53.033008589
 21
398.2932811806
 31
0.0
  0
LINE
  5
46E
330
319
100
AcDbEntity
  8
0
  6
Continuous
 62
     7
370
    25
100
AcDbLine
 10
34.6482322781
 20
389.3350788654
 30
0.0
 11
34.6482322781
 21
393.3948325097
 31
0.0
  0
LINE
  5
46F
330
319
100
AcDbEntity
  8
0
  6
Continuous
 62
     7
370
    25
100
AcDbLine
 10
47.3761543395
 20
36.1993908692
 30
0.0
 11
53.1744299452
 21
39.5466641277
 31
0.0
  0
LINE
  5
470
330
319
100
AcDbEntity
  8
0
  6
Continuous
 62
     7
370
    25
100
AcDbLine
 10
33.2340187158
 20
36.1993908692
 30
0.0
 11
-62.0567804749
 21
91.2095983168
 31
0.0
  0
LINE
  5
471
330
319
100
AcDbEntity
  8
0
  6
Continuous
 62
     7
370
    25
100
AcDbLine
 10
53.1744299452
 20
39.5466641277
 30
0.0
 11
38.2247699707
 21
48.1769191308
 31
0.0
  0
LINE
  5
472
330
319
100
AcDbEntity
  8
0
  6
Continuous
 62
     7
370
    25
100
AcDbLine
 10
33.2340187158
 20
-163.8531080428
 30
0.0
 11
33.2340187158
 21
36.1993908692
 31
0.0
  0
LINE
  5
473
330
319
100
AcDbEntity
  8
0
  6
Continuous
 62
     7
370
    25
100
AcDbLine
 10
47.3761543395
 20
36.1993908692
 30
0.0
 11
47.3761543395
 21
-163.8531080428
 31
0.0
  0
LINE
  5
474
330
319
100
AcDbEntity
  8
0
  6
Continuous
 62
     7
370
    25
100
AcDbLine
 10
53.1744299452
 20
329.4186523471
 30
0.0
 11
53.1744299452
 21
-160.5058347843
 31
0.0
  0
LINE
  5
475
330
319
100
AcDbEntity
  8
0
  6
Continuous
 62
     7
370
    25
100
AcDbLine
 10
47.3761543395
 20
-163.8531080428
 30
0.0
 11
309.1470847348
 21
-12.7359665444
 31
0.0
  0
LINE
  5
476
330
319
100
AcDbEntity
  8
0
  6
Continuous
 62
     7
370
    25
100
AcDbLine
 10
-282.8427124746
 20
18.6141049496
 30
0.0
 11
33.2340187158
 21
-163.8531080428
 31
0.0
  0
LINE
  5
477
330
319
100
AcDbEntity
  8
0
  6
Continuous
 62
     7
370
    25
100
AcDbLine
 10
-282.8427124746
 20
218.6666038616
 30
0.0
 11
-282.8427124746
 21
18.6141049496
 31
0.0
  0
LINE
  5
478
330
319
100
AcDbEntity
  8
0
  6
Continuous
 62
     7
370
    25
100
AcDbLine
 10
-187.551913284
 20
163.656396414
 30
0.0
 11
-282.8427124746
 21
218.6666038616
 31
0.0
  0
LINE
  5
479
330
319
100
AcDbEntity
  8
0
  6
Continuous
 62
     7
370
    25
100
AcDbLine
 10
-282.8427124746
 20
226.8306849798
 30
0.0
 11
-278.3860663277
 21
229.4034520375
 31
0.0
  0
LINE
  5
47A
330
319
100
AcDbEntity
  8
0
  6
Continuous
 62
     7
370
    25
100
AcDbLine
 10
40.3050865276
 20
336.8479661647
 30
0.0
 11
53.1744299452
 21
329.4186523471
 31
0.0
  0
LINE
  5
47B
330
319
100
AcDbEntity
  8
0
  6
Continuous
 62
     7
370
    25
100
AcDbLine
 10
296.2777413172
 20
484.6178344046
 30
0.0
 11
40.3050865276
 21
336.8479661647
 31
0.0
  0
LINE
  5
47C
330
319
100
AcDbEntity
  8
0
  6
Continuous
 62
     7
370
    25
100
AcDbLine
 10
296.2777413172
 20
484.6178344046
 30
0.0
 11
309.1470847348
 21
477.188520587
 31
0.0
  0
LINE
  5
47D
330
319
100
AcDbEntity
  8
0
  6
Continuous
 62
     7
370
    25
100
AcDbLine
 10
309.1470847348
 20
477.188520587
 30
0.0
 11
53.1744299452
 21
329.4186523471
 31
0.0
  0
LINE
  5
47E
330
319
100
AcDbEntity
  8
0
  6
Continuous
 62
     7
370
    25
100
AcDbLine
 10
309.1470847348
 20
-12.7359665444
 30
0.0
 11
309.1470847348
 21
477.188520587
 31
0.0
  0
LINE
  5
47F
330
319
100
AcDbEntity
  8
0
  6
Continuous
 62
     7
370
    25
100
AcDbLine
 10
40.3050865276
 20
336.8479661647
 30
0.0
 11
40.3050865276
 21
333.0102243488
 31
0.0
  0
LINE
  5
480
330
319
100
AcDbEntity
  8
0
  6
Continuous
 62
     7
370
    25
100
AcDbLine
 10
40.3050865276
 20
48.1109884916
 30
0.0
 11
40.3050865276
 21
46.9759779453
 31
0.0
  0
LINE
  5
481
330
319
100
AcDbEntity
  8
0
  6
Continuous
 62
     7
370
    25
100
AcDbLine
 10
-277.5394116157
 20
516.497947481
 30
0.0
 11
-283.5498192558
 21
513.0282130057
 31
0.0
  0
LINE
  5
482
330
319
100
AcDbEntity
  8
0
  6
Continuous
 62
     7
370
    25
100
AcDbLine
 10
-277.5394116157
 20
516.497947481
 30
0.0
 11
52.6794551984
 21
325.8666533704
 31
0.0
  0
LINE
  5
483
330
319
100
AcDbEntity
  8
0
  6
Continuous
 62
     7
370
    25
100
AcDbLine
 10
52.6794551984
 20
325.8666533704
 30
0.0
 11
46.6690475583
 21
322.3969188951
 31
0.0
  0
LINE
  5
484
330
319
100
AcDbEntity
  8
0
  6
Continuous
 62
     7
370
    25
100
AcDbLine
 10
-283.5498192558
 20
504.8641318875
 30
0.0
 11
32.5269119346
 21
322.3969188951
 31
0.0
  0
LINE
  5
485
330
319
100
AcDbEntity
  8
0
  6
Continuous
 62
     7
370
    25
100
AcDbLine
 10
46.6690475583
 20
322.3969188951
 30
0.0
 11
46.6690475583
 21
259.5232763799
 31
0.0
  0
LINE
  5
486
330
319
100
AcDbEntity
  8
0
  6
Continuous
 62
     7
370
    25
100
AcDbLine
 10
32.5269119346
 20
259.5232763799
 30
0.0
 11
32.5269119346
 21
322.3969188951
 31
0.0
  0
LINE
  5
487
330
319
100
AcDbEntity
  8
0
  6
Continuous
 62
     7
370
    25
100
AcDbLine
 10
-283.5498192558
 20
504.8641318875
 30
0.0
 11
-283.5498192558
 21
441.9904893723
 31
0.0
  0
LINE
  5
488
330
319
100
AcDbEntity
  8
0
  6
Continuous
 62
     7
370
    25
100
AcDbLine
 10
32.5269119346
 20
259.5232763799
 30
0.0
 11
-283.5498192558
 21
441.9904893723
 31
0.0
  0
LINE
  5
489
330
319
100
AcDbEntity
  8
0
  6
Continuous
 62
     7
370
    25
100
AcDbLine
 10
52.6794551984
 20
325.8666533704
 30
0.0
 11
52.6794551984
 21
262.9930108552
 31
0.0
  0
LINE
  5
48A
330
319
100
AcDbEntity
  8
0
  6
Continuous
 62
     7
370
    25
100
AcDbLine
 10
52.6794551984
 20
262.9930108552
 30
0.0
 11
46.6690475583
 21
259.5232763799
 31
0.0
  0
LINE
  5
48B
330
319
100
AcDbEntity
  8
0
  6
Continuous
 62
     7
370
    25
100
AcDbLine
 10
-34.0891759949
 20
381.0515091785
 30
0.0
 11
-43.3612804981
 21
436.0136706076
 31
0.0
  0
LINE
  5
48C
330
319
100
AcDbEntity
  8
0
  6
Continuous
 62
     7
370
    25
100
AcDbLine
 10
-34.0891759949
 20
381.0515091785
 30
0.0
 11
-38.5015263006
 21
378.5043135656
 31
0.0
  0
LINE
  5
48D
330
319
100
AcDbEntity
  8
0
  6
Continuous
 62
     7
370
    25
100
AcDbLine
 10
-48.1421038089
 20
443.2298955418
 30
0.0
 11
-36.8283953099
 21
449.7611604364
 31
0.0
  0
LINE
  5
48E
330
319
100
AcDbEntity
  8
0
  6
Continuous
 62
     7
370
    25
100
AcDbLine
 10
-31.6996521491
 20
376.9882838159
 30
0.0
 11
-33.7875266756
 21
375.7829795074
 31
0.0
  0
LINE
  5
48F
330
319
100
AcDbEntity
  8
0
  6
Continuous
 62
     7
370
    25
100
AcDbLine
 10
-16.9705627485
 20
438.29747771
 30
0.0
 11
-36.8283953099
 21
449.7611604364
 31
0.0
  0
LINE
  5
490
330
319
100
AcDbEntity
  8
0
  6
Continuous
 62
     7
370
    25
100
AcDbLine
 10
-28.2842712475
 20
431.7662128154
 30
0.0
 11
-16.9705627485
 21
438.29747771
 31
0.0
  0
LINE
  5
491
330
319
100
AcDbEntity
  8
0
  6
Continuous
 62
     7
370
    25
100
AcDbLine
 10
-28.2842712475
 20
431.7662128154
 30
0.0
 11
-48.1421038089
 21
443.2298955418
 31
0.0
  0
LINE
  5
492
330
319
100
AcDbEntity
  8
0
  6
Continuous
 62
     7
370
    25
100
AcDbLine
 10
-16.9705627485
 20
437.0726664922
 30
0.0
 11
-16.9705627485
 21
438.29747771
 31
0.0
  0
LINE
  5
493
330
319
100
AcDbEntity
  8
0
  6
Continuous
 62
     8
370
    25
100
AcDbLine
 10
-54.2772266729
 20
309.6342389562
 30
0.0
 11
-62.5517552217
 21
304.8574553016
 31
0.0
  0
LINE
  5
494
330
319
100
AcDbEntity
  8
0
  6
Continuous
 62
     8
370
    25
100
AcDbLine
 10
-69.5406879164
 20
307.5244322722
 30
0.0
 11
-60.0816131126
 21
312.9850399241
 31
0.0
  0
LINE
  5
495
330
319
100
AcDbEntity
  8
0
  6
Continuous
 62
     8
370
    25
100
AcDbLine
 10
-171.5988805324
 20
377.3625880908
 30
0.0
 11
-181.0579553361
 21
371.9019804389
 31
0.0
  0
LINE
  5
496
330
319
100
AcDbEntity
  8
0
  6
Continuous
 62
     8
370
    25
100
AcDbLine
 10
-188.0468880308
 20
377.3042533989
 30
0.0
 11
-179.772359482
 21
382.0810370534
 31
0.0
  0
LINE
  5
497
330
319
100
AcDbEntity
  8
0
  6
Continuous
 62
     8
370
    25
100
AcDbLine
 10
-16.9705627485
 20
565.7992433173
 30
0.0
 11
-16.9705627485
 21
577.4312548531
 31
0.0
  0
LINE
  5
498
330
319
100
AcDbEntity
  8
0
  6
Continuous
 62
     8
370
    25
100
AcDbLine
 10
-18.2433549546
 20
578.8193875033
 30
0.0
 11
-18.2433549546
 21
579.1457118879
 31
0.0
  0
LINE
  5
499
330
319
100
AcDbEntity
  8
0
  6
Continuous
 62
     8
370
    25
100
AcDbLine
 10
-50.529066516
 20
97.8644059336
 30
0.0
 11
-62.0567804749
 21
91.2095983168
 31
0.0
  0
LINE
  5
49A
330
319
100
AcDbEntity
  8
0
  6
Continuous
 62
     8
370
    25
100
AcDbLine
 10
-69.0457131696
 20
93.8765752873
 30
0.0
 11
-56.3334529558
 21
101.2152069015
 31
0.0
  0
LINE
  5
49B
330
319
100
AcDbEntity
  8
0
  6
Continuous
 62
     8
370
    25
100
AcDbLine
 10
-167.8507203755
 20
165.5927550683
 30
0.0
 11
-180.5629805893
 21
158.254123454
 31
0.0
  0
LINE
  5
49C
330
319
100
AcDbEntity
  8
0
  6
Continuous
 62
     8
370
    25
100
AcDbLine
 10
-187.551913284
 20
163.656396414
 30
0.0
 11
-176.0241993252
 21
170.3112040309
 31
0.0
  0
LINE
  5
49D
330
319
100
AcDbEntity
  8
0
  6
Continuous
 62
     8
370
    25
100
AcDbLine
 10
-90.741364566
 20
408.6617302776
 30
0.0
 11
-43.3612804981
 21
436.0136706076
 31
0.0
  0
ARC
  5
49E
330
319
100
AcDbEntity
  8
0
  6
Continuous
 62
     7
370
    25
100
AcDbCircle
 10
8.3140160075
 20
555.9492611469
 30
0.0
 40
4.11273729520288
100
AcDbArc
 50
168.7427253509
 51
240.5710930714
  0
ARC
  5
49F
330
319
100
AcDbEntity
  8
0
  6
Continuous
 62
     7
370
    25
100
AcDbCircle
 10
13.9412643173
 20
522.5227792003
 30
0.0
 40
4.112684626988282
100
AcDbArc
 50
179.4285269296
 51
251.2523714446
  0
ARC
  5
4A0
330
319
100
AcDbEntity
  8
0
  6
Continuous
 62
     7
370
    25
100
AcDbCircle
 10
8.3140160075
 20
503.6906491862
 30
0.0
 40
4.11273729522063
100
AcDbArc
 50
168.7427253516
 51
240.5710930713
  0
ARC
  5
4A1
330
319
100
AcDbEntity
  8
0
  6
Continuous
 62
     7
370
    25
100
AcDbCircle
 10
39.8101117808
 20
263.4943587036
 30
0.0
 40
15.37021907911754
100
AcDbArc
 50
242.6096722366
 51
297.3903277634
  0
ARC
  5
4A2
330
319
100
AcDbEntity
  8
0
  6
Continuous
 62
     7
370
    25
100
AcDbCircle
 10
39.8101117808
 20
63.4418597916
 30
0.0
 40
15.37021907911708
100
AcDbArc
 50
242.6096722366
 51
297.3903277634
  0
ARC
  5
4A3
330
319
100
AcDbEntity
  8
0
  6
Continuous
 62
     7
370
    25
100
AcDbCircle
 10
-73.6171818308
 20
286.3509030635
 30
0.0
 40
21.56237792506372
100
AcDbArc
 50
59.1239780516
 51
79.1023095648
  0
ARC
  5
4A4
330
319
100
AcDbEntity
  8
0
  6
Continuous
 62
     7
370
    25
100
AcDbCircle
 10
-206.0235086266
 20
346.8259233858
 30
0.0
 40
35.384848288975
100
AcDbArc
 50
45.1265224857
 51
59.4671966015
  0
ARC
  5
4A5
330
319
100
AcDbEntity
  8
0
  6
Continuous
 62
     7
370
    25
100
AcDbCircle
 10
-281.2620487847
 20
236.8430662625
 30
0.0
 40
5.0293927849377
100
AcDbArc
 50
185.6947992512
 51
245.6253417064
  0
ARC
  5
4A6
330
319
100
AcDbEntity
  8
0
  6
Continuous
 62
     7
370
    25
100
AcDbCircle
 10
-42.4264068712
 20
568.0546542628
 30
0.0
 40
4.611065723734415
100
AcDbArc
 50
242.6096722366
 51
297.3903277634
  0
ARC
  5
4A7
330
319
100
AcDbEntity
  8
0
  6
Continuous
 62
     7
370
    25
100
AcDbCircle
 10
-42.4264068712
 20
490.9732016208
 30
0.0
 40
4.611065723736441
100
AcDbArc
 50
242.6096722366
 51
297.3903277634
  0
ARC
  5
4A8
330
319
100
AcDbEntity
  8
0
  6
Continuous
 62
     7
370
    25
100
AcDbCircle
 10
-42.4264068712
 20
566.3329416106
 30
0.0
 40
1.844426289494165
100
AcDbArc
 50
242.6096722366
 51
297.3903277634
  0
ARC
  5
4A9
330
319
100
AcDbEntity
  8
0
  6
Continuous
 62
     7
370
    25
100
AcDbCircle
 10
-27.2489961645
 20
534.1172125074
 30
0.0
 40
2.366830288459989
100
AcDbArc
 50
65.3810279526
 51
125.9294304765
  0
ARC
  5
4AA
330
319
100
AcDbEntity
  8
0
  6
Continuous
 62
     7
370
    25
100
AcDbCircle
 10
-26.2494492519
 20
568.7445343494
 30
0.0
 40
3.398845348559536
100
AcDbArc
 50
290.7235757375
 51
9.2818007952
  0
ARC
  5
4AB
330
319
100
AcDbEntity
  8
0
  6
Continuous
 62
     7
370
    25
100
AcDbCircle
 10
-18.471851917
 20
578.614643459
 30
0.0
 40
0.5781388569863116
100
AcDbArc
 50
0.2878271118
 51
66.7197732297
  0
ARC
  5
4AC
330
319
100
AcDbEntity
  8
0
  6
Continuous
 62
     7
370
    25
100
AcDbCircle
 10
-17.4353438289
 20
578.6558670208
 30
0.0
 40
1.309845950502826
100
AcDbArc
 50
290.7834207995
 51
69.2165792005
  0
ARC
  5
4AD
330
319
100
AcDbEntity
  8
0
  6
Continuous
 62
     7
370
    25
100
AcDbCircle
 10
-26.0259569476
 20
504.6056203462
 30
0.0
 40
2.900498507100047
100
AcDbArc
 50
289.7310116708
 51
325.2911869587
  0
ARC
  5
4AE
330
319
100
AcDbEntity
  8
0
  6
Continuous
 62
     7
370
    25
100
AcDbCircle
 10
40.3050865276
 20
49.8465017187
 30
0.0
 40
15.37021907911742
100
AcDbArc
 50
242.6096722366
 51
297.3903277634
  0
ARC
  5
4AF
330
319
100
AcDbEntity
  8
0
  6
Continuous
 62
     7
370
    25
100
AcDbCircle
 10
40.3050865276
 20
-150.2059971933
 30
0.0
 40
15.3702190791173
100
AcDbArc
 50
242.6096722366
 51
297.3903277634
  0
ARC
  5
4B0
330
319
100
AcDbEntity
  8
0
  6
Continuous
 62
     7
370
    25
100
AcDbCircle
 10
-73.1222070839
 20
72.7030460786
 30
0.0
 40
21.56237792505665
100
AcDbArc
 50
59.1239780516
 51
79.1023095649
  0
ARC
  5
4B1
330
319
100
AcDbEntity
  8
0
  6
Continuous
 62
     7
370
    25
100
AcDbCircle
 10
-205.5285338798
 20
133.1780664009
 30
0.0
 40
35.38484828897292
100
AcDbArc
 50
45.1265224857
 51
59.4671966015
  0
ARC
  5
4B2
330
319
100
AcDbEntity
  8
0
  6
Continuous
 62
     7
370
    25
100
AcDbCircle
 10
-280.7670740378
 20
23.1952092777
 30
0.0
 40
5.029392784937507
100
AcDbArc
 50
185.6947992512
 51
245.6253417064
  0
ARC
  5
4B3
330
319
100
AcDbEntity
  8
0
  6
Continuous
 62
     7
370
    25
100
AcDbCircle
 10
39.5979797464
 20
336.0440297447
 30
0.0
 40
15.37021907911652
100
AcDbArc
 50
242.6096722366
 51
297.3903277634
  0
ARC
  5
4B4
330
319
100
AcDbEntity
  8
0
  6
Continuous
 62
     7
370
    25
100
AcDbCircle
 10
39.5979797464
 20
273.1703872295
 30
0.0
 40
15.37021907911686
100
AcDbArc
 50
242.6096722366
 51
297.3903277634
  0
ARC
  5
4B5
330
319
100
AcDbEntity
  8
0
  6
Continuous
 62
     7
370
    25
100
AcDbCircle
 10
-281.474180819
 20
446.5715937004
 30
0.0
 40
5.029392784937575
100
AcDbArc
 50
185.6947992512
 51
245.6253417064
  0
ARC
  5
4B6
330
319
100
AcDbEntity
  8
0
  6
Continuous
 62
     7
370
    25
100
AcDbCircle
 10
-38.8544600212
 20
446.9330166535
 30
0.0
 40
3.47898483339333
100
AcDbArc
 50
54.3824225248
 51
114.3071190461
  0
ARC
  5
4B7
330
319
100
AcDbEntity
  8
0
  6
Continuous
 62
     7
370
    25
100
AcDbCircle
 10
-54.0310318737
 20
434.1366352732
 30
0.0
 40
10.83359848175245
100
AcDbArc
 50
9.9774492891
 51
57.0723170869
  0
ARC
  5
4B8
330
319
100
AcDbEntity
  8
0
  6
Continuous
 62
     7
370
    25
100
AcDbCircle
 10
-26.8034852894
 20
382.6018832863
 30
0.0
 40
7.448821982766702
100
AcDbArc
 50
192.0131873468
 51
228.9051476174
  0
VIEWPORT
  5
4BF
330
319
100
AcDbEntity
  8
0
100
AcDbViewport
 10
0.0
 20
0.0
 30
0.0
 40
205.6
 41
156.0
 68
     1
 69
     1
 12
0.0
 22
295.25
 13
0.0
 23
0.0
 14
10.0
 24
10.0
 15
10.0
 25
10.0
 16
0.0
 26
0.0
 36
1.0
 17
0.0
 27
0.0
 37
0.0
 42
50.0
 43
0.0
 44
0.0
 45
621.69
 50
0.0
 51
0.0
 72
   100
 90
   557152
  1

281
     0
 71
     1
 74
     0
110
0.0
120
0.0
130
0.0
111
1.0
121
0.0
131
0.0
112
0.0
122
1.0
132
0.0
 79
     0
146
0.0
  0
ENDBLK
  5
31C
330
319
100
AcDbEntity
  8
0
100
AcDbBlockEnd
  0
ENDSEC
  0
SECTION
  2
ENTITIES
  0
LINE
  5
B0
330
1F
100
AcDbEntity
  8
0
  6
Continuous
 62
     7
370
    25
100
AcDbLine
 10
186.25
 20
-9.5
 30
0.0
 11
186.25
 21
0.0
 31
0.0
  0
LINE
  5
B1
330
1F
100
AcDbEntity
  8
0
  6
Continuous
 62
     7
370
    25
100
AcDbLine
 10
175.75
 20
0.0
 30
0.0
 11
175.75
 21
-9.5
 31
0.0
  0
LINE
  5
B2
330
1F
100
AcDbEntity
  8
0
  6
Continuous
 62
     7
370
    25
100
AcDbLine
 10
-175.75
 20
-9.5
 30
0.0
 11
-175.75
 21
0.0
 31
0.0
  0
LINE
  5
B3
330
1F
100
AcDbEntity
  8
0
  6
Continuous
 62
     7
370
    25
100
AcDbLine
 10
-186.25
 20
0.0
 30
0.0
 11
-186.25
 21
-9.5
 31
0.0
  0
LINE
  5
B4
330
1F
100
AcDbEntity
  8
0
  6
Continuous
 62
     7
370
    25
100
AcDbLine
 10
-223.5
 20
506.3
 30
0.0
 11
-223.5
 21
261.3
 31
0.0
  0
LINE
  5
B5
330
1F
100
AcDbEntity
  8
0
  6
Continuous
 62
     7
370
    25
100
AcDbLine
 10
-233.5
 20
261.3
 30
0.0
 11
-233.5
 21
506.3
 31
0.0
  0
LINE
  5
B6
330
1F
100
AcDbEntity
  8
0
  6
Continuous
 62
     7
370
    25
100
AcDbLine
 10
-88.7384594152
 20
506.3
 30
0.0
 11
-233.5
 21
506.3
 31
0.0
  0
LINE
  5
B7
330
1F
100
AcDbEntity
  8
0
  6
Continuous
 62
     7
370
    25
100
AcDbLine
 10
223.5
 20
261.3
 30
0.0
 11
223.5
 21
506.3
 31
0.0
  0
LINE
  5
B8
330
1F
100
AcDbEntity
  8
0
  6
Continuous
 62
     7
370
    25
100
AcDbLine
 10
233.5
 20
506.3
 30
0.0
 11
233.5
 21
261.3
 31
0.0
  0
LINE
  5
B9
330
1F
100
AcDbEntity
  8
0
  6
Continuous
 62
     7
370
    25
100
AcDbLine
 10
-233.5
 20
261.3
 30
0.0
 11
233.5
 21
261.3
 31
0.0
  0
LINE
  5
BA
330
1F
100
AcDbEntity
  8
0
  6
Continuous
 62
     7
370
    25
100
AcDbLine
 10
233.5
 20
506.3
 30
0.0
 11
88.7384594152
 21
506.3
 31
0.0
  0
LINE
  5
BB
330
1F
100
AcDbEntity
  8
0
  6
Continuous
 62
     7
370
    25
100
AcDbLine
 10
-234.2
 20
600.0
 30
0.0
 11
-234.2
 21
0.0
 31
0.0
  0
LINE
  5
BC
330
1F
100
AcDbEntity
  8
0
  6
Continuous
 62
     7
370
    25
100
AcDbLine
 10
-216.0
 20
600.0
 30
0.0
 11
-234.2
 21
600.0
 31
0.0
  0
LINE
  5
BD
330
1F
100
AcDbEntity
  8
0
  6
Continuous
 62
     7
370
    25
100
AcDbLine
 10
-216.0
 20
600.0
 30
0.0
 11
-216.0
 21
595.3
 31
0.0
  0
LINE
  5
BE
330
1F
100
AcDbEntity
  8
0
  6
Continuous
 62
     7
370
    25
100
AcDbLine
 10
-216.0
 20
518.3
 30
0.0
 11
-216.0
 21
506.3
 31
0.0
  0
LINE
  5
BF
330
1F
100
AcDbEntity
  8
0
  6
Continuous
 62
     7
370
    25
100
AcDbLine
 10
-216.0
 20
261.3
 30
0.0
 11
-216.0
 21
245.0
 31
0.0
  0
LINE
  5
C0
330
1F
100
AcDbEntity
  8
0
  6
Continuous
 62
     7
370
    25
100
AcDbLine
 10
175.75
 20
-9.5
 30
0.0
 11
186.25
 21
-9.5
 31
0.0
  0
LINE
  5
C1
330
1F
100
AcDbEntity
  8
0
  6
Continuous
 62
     7
370
    25
100
AcDbLine
 10
-186.25
 20
-9.5
 30
0.0
 11
-175.75
 21
-9.5
 31
0.0
  0
LINE
  5
C2
330
1F
100
AcDbEntity
  8
0
  6
Continuous
 62
     7
370
    25
100
AcDbLine
 10
224.2
 20
0.0
 30
0.0
 11
224.2
 21
245.0
 31
0.0
  0
LINE
  5
C3
330
1F
100
AcDbEntity
  8
0
  6
Continuous
 62
     7
370
    25
100
AcDbLine
 10
234.2
 20
245.0
 30
0.0
 11
89.4384594152
 21
245.0
 31
0.0
  0
LINE
  5
C4
330
1F
100
AcDbEntity
  8
0
  6
Continuous
 62
     7
370
    25
100
AcDbLine
 10
234.2
 20
600.0
 30
0.0
 11
234.2
 21
0.0
 31
0.0
  0
LINE
  5
C5
330
1F
100
AcDbEntity
  8
0
  6
Continuous
 62
     7
370
    25
100
AcDbLine
 10
-234.2
 20
0.0
 30
0.0
 11
234.2
 21
0.0
 31
0.0
  0
LINE
  5
C6
330
1F
100
AcDbEntity
  8
0
  6
Continuous
 62
     7
370
    25
100
AcDbLine
 10
-222.8
 20
245.0
 30
0.0
 11
-222.8
 21
0.0
 31
0.0
  0
LINE
  5
C7
330
1F
100
AcDbEntity
  8
0
  6
Continuous
 62
     7
370
    25
100
AcDbLine
 10
-232.8
 20
0.0
 30
0.0
 11
-232.8
 21
245.0
 31
0.0
  0
LINE
  5
C8
330
1F
100
AcDbEntity
  8
0
  6
Continuous
 62
     7
370
    25
100
AcDbLine
 10
-88.0384594152
 20
245.0
 30
0.0
 11
-232.8
 21
245.0
 31
0.0
  0
LINE
  5
C9
330
1F
100
AcDbEntity
  8
0
  6
Continuous
 62
     7
370
    25
100
AcDbLine
 10
216.0
 20
600.0
 30
0.0
 11
216.0
 21
595.3
 31
0.0
  0
LINE
  5
CA
330
1F
100
AcDbEntity
  8
0
  6
Continuous
 62
     7
370
    25
100
AcDbLine
 10
216.0
 20
506.3
 30
0.0
 11
216.0
 21
518.3
 31
0.0
  0
LINE
  5
CB
330
1F
100
AcDbEntity
  8
0
  6
Continuous
 62
     7
370
    25
100
AcDbLine
 10
216.0
 20
245.0
 30
0.0
 11
216.0
 21
261.3
 31
0.0
  0
LINE
  5
CC
330
1F
100
AcDbEntity
  8
0
  6
Continuous
 62
     7
370
    25
100
AcDbLine
 10
216.0
 20
600.0
 30
0.0
 11
234.2
 21
600.0
 31
0.0
  0
LINE
  5
CD
330
1F
100
AcDbEntity
  8
0
  6
Continuous
 62
     7
370
    25
100
AcDbLine
 10
233.5
 20
595.3
 30
0.0
 11
233.5
 21
518.3
 31
0.0
  0
LINE
  5
CE
330
1F
100
AcDbEntity
  8
0
  6
Continuous
 62
     7
370
    25
100
AcDbLine
 10
223.5
 20
518.3
 30
0.0
 11
223.5
 21
595.3
 31
0.0
  0
LINE
  5
CF
330
1F
100
AcDbEntity
  8
0
  6
Continuous
 62
     7
370
    25
100
AcDbLine
 10
-233.5
 20
518.3
 30
0.0
 11
-233.5
 21
595.3
 31
0.0
  0
LINE
  5
D0
330
1F
100
AcDbEntity
  8
0
  6
Continuous
 62
     7
370
    25
100
AcDbLine
 10
-223.5
 20
595.3
 30
0.0
 11
-223.5
 21
518.3
 31
0.0
  0
LINE
  5
D1
330
1F
100
AcDbEntity
  8
0
  6
Continuous
 62
     7
370
    25
100
AcDbLine
 10
-233.5
 20
595.3
 30
0.0
 11
233.5
 21
595.3
 31
0.0
  0
LINE
  5
D2
330
1F
100
AcDbEntity
  8
0
  6
Continuous
 62
     7
370
    25
100
AcDbLine
 10
233.5
 20
518.3
 30
0.0
 11
-233.5
 21
518.3
 31
0.0
  0
ARC
  5
D3
330
1F
100
AcDbEntity
  8
0
  6
Continuous
 62
     7
370
    25
100
AcDbCircle
 10
88.7384594152
 20
476.3
 30
0.0
 40
30.00000000000313
100
AcDbArc
 50
90.0
 51
109.2360907721
  0
ARC
  5
D4
330
1F
100
AcDbEntity
  8
0
  6
Continuous
 62
     7
370
    25
100
AcDbCircle
 10
-88.7384594152
 20
476.3
 30
0.0
 40
30.00000000000125
100
AcDbArc
 50
70.7639092279
 51
90.0
  0
ARC
  5
D5
330
1F
100
AcDbEntity
  8
0
  6
Continuous
 62
     7
370
    25
100
AcDbCircle
 10
0.0
 20
730.60625
 30
0.0
 40
239.3439863231643
100
AcDbArc
 50
250.7639092279
 51
289.2360907721
  0
ARC
  5
D6
330
1F
100
AcDbEntity
  8
0
  6
Continuous
 62
     7
370
    25
100
AcDbCircle
 10
-88.0384594152
 20
215.0
 30
0.0
 40
30.00000000000241
100
AcDbArc
 50
70.7639092279
 51
90.0
  0
ARC
  5
D7
330
1F
100
AcDbEntity
  8
0
  6
Continuous
 62
     7
370
    25
100
AcDbCircle
 10
0.7
 20
469.30625
 30
0.0
 40
239.3439863231638
100
AcDbArc
 50
250.7639092279
 51
289.2360907721
  0
ARC
  5
D8
330
1F
100
AcDbEntity
  8
0
  6
Continuous
 62
     7
370
    25
100
AcDbCircle
 10
89.4384594152
 20
215.0
 30
0.0
 40
30.00000000000156
100
AcDbArc
 50
90.0
 51
109.2360907721
  0
LINE
  5
16E
330
1B
100
AcDbEntity
 67
     1
  8
0
  6
Continuous
 62
     7
370
    25
100
AcDbLine
 10
-175.75
 20
-9.5
 30
0.0
 11
-175.75
 21
0.0
 31
0.0
  0
LINE
  5
16F
330
1B
100
AcDbEntity
 67
     1
  8
0
  6
Continuous
 62
     7
370
    25
100
AcDbLine
 10
-186.25
 20
0.0
 30
0.0
 11
-186.25
 21
-9.5
 31
0.0
  0
LINE
  5
170
330
1B
100
AcDbEntity
 67
     1
  8
0
  6
Continuous
 62
     7
370
    25
100
AcDbLine
 10
186.25
 20
-9.5
 30
0.0
 11
186.25
 21
0.0
 31
0.0
  0
LINE
  5
171
330
1B
100
AcDbEntity
 67
     1
  8
0
  6
Continuous
 62
     7
370
    25
100
AcDbLine
 10
175.75
 20
0.0
 30
0.0
 11
175.75
 21
-9.5
 31
0.0
  0
LINE
  5
172
330
1B
100
AcDbEntity
 67
     1
  8
0
  6
Continuous
 62
     7
370
    25
100
AcDbLine
 10
-174.2
 20
42.5
 30
0.0
 11
-174.2
 21
44.0
 31
0.0
  0
LINE
  5
173
330
1B
100
AcDbEntity
 67
     1
  8
0
  6
Continuous
 62
     7
370
    25
100
AcDbLine
 10
-174.2
 20
117.0
 30
0.0
 11
-174.2
 21
184.5
 31
0.0
  0
LINE
  5
174
330
1B
100
AcDbEntity
 67
     1
  8
0
  6
Continuous
 62
     7
370
    25
100
AcDbLine
 10
-174.2
 20
184.5
 30
0.0
 11
172.8
 21
184.5
 31
0.0
  0
LINE
  5
175
330
1B
100
AcDbEntity
 67
     1
  8
0
  6
Continuous
 62
     7
370
    25
100
AcDbLine
 10
172.8
 20
184.5
 30
0.0
 11
172.8
 21
117.0
 31
0.0
  0
LINE
  5
176
330
1B
100
AcDbEntity
 67
     1
  8
0
  6
Continuous
 62
     7
370
    25
100
AcDbLine
 10
172.8
 20
44.0
 30
0.0
 11
172.8
 21
42.5
 31
0.0
  0
LINE
  5
177
330
1B
100
AcDbEntity
 67
     1
  8
0
  6
Continuous
 62
     7
370
    25
100
AcDbLine
 10
-206.7
 20
42.5
 30
0.0
 11
205.3
 21
42.5
 31
0.0
  0
LINE
  5
178
330
1B
100
AcDbEntity
 67
     1
  8
0
  6
Continuous
 62
     7
370
    25
100
AcDbLine
 10
163.1
 20
403.9545252283
 30
0.0
 11
163.1
 21
493.9545252283
 31
0.0
  0
LINE
  5
179
330
1B
100
AcDbEntity
 67
     1
  8
0
  6
Continuous
 62
     7
370
    25
100
AcDbLine
 10
163.1
 20
493.9545252283
 30
0.0
 11
211.0
 21
493.9545252283
 31
0.0
  0
LINE
  5
17A
330
1B
100
AcDbEntity
 67
     1
  8
0
  6
Continuous
 62
     7
370
    25
100
AcDbLine
 10
211.0
 20
403.9545252283
 30
0.0
 11
211.0
 21
510.0
 31
0.0
  0
LINE
  5
17B
330
1B
100
AcDbEntity
 67
     1
  8
0
  6
Continuous
 62
     7
370
    25
100
AcDbLine
 10
211.0
 20
403.9545252283
 30
0.0
 11
163.1
 21
403.9545252283
 31
0.0
  0
LINE
  5
17C
330
1B
100
AcDbEntity
 67
     1
  8
0
  6
Continuous
 62
     7
370
    25
100
AcDbLine
 10
178.1
 20
419.9545252283
 30
0.0
 11
194.1
 21
419.9545252283
 31
0.0
  0
LINE
  5
17D
330
1B
100
AcDbEntity
 67
     1
  8
0
  6
Continuous
 62
     7
370
    25
100
AcDbLine
 10
178.1
 20
483.9545252283
 30
0.0
 11
194.1
 21
483.9545252283
 31
0.0
  0
LINE
  5
17E
330
1B
100
AcDbEntity
 67
     1
  8
0
  6
Continuous
 62
     7
370
    25
100
AcDbLine
 10
194.1
 20
477.9545252283
 30
0.0
 11
178.1
 21
477.9545252283
 31
0.0
  0
LINE
  5
17F
330
1B
100
AcDbEntity
 67
     1
  8
0
  6
Continuous
 62
     7
370
    25
100
AcDbLine
 10
189.1
 20
453.9545252283
 30
0.0
 11
189.1
 21
443.9545252283
 31
0.0
  0
LINE
  5
180
330
1B
100
AcDbEntity
 67
     1
  8
0
  6
Continuous
 62
     7
370
    25
100
AcDbLine
 10
183.1
 20
443.9545252283
 30
0.0
 11
183.1
 21
453.9545252283
 31
0.0
  0
LINE
  5
181
330
1B
100
AcDbEntity
 67
     1
  8
0
  6
Continuous
 62
     7
370
    25
100
AcDbLine
 10
194.1
 20
413.9545252283
 30
0.0
 11
178.1
 21
413.9545252283
 31
0.0
  0
LINE
  5
182
330
1B
100
AcDbEntity
 67
     1
  8
0
  6
Continuous
 62
     7
370
    25
100
AcDbLine
 10
-186.25
 20
-9.5
 30
0.0
 11
-175.75
 21
-9.5
 31
0.0
  0
LINE
  5
183
330
1B
100
AcDbEntity
 67
     1
  8
0
  6
Continuous
 62
     7
370
    25
100
AcDbLine
 10
-178.5
 20
304.3
 30
0.0
 11
-178.5
 21
288.3
 31
0.0
  0
LINE
  5
184
330
1B
100
AcDbEntity
 67
     1
  8
0
  6
Continuous
 62
     7
370
    25
100
AcDbLine
 10
-181.0
 20
304.3
 30
0.0
 11
-110.0
 21
304.3
 31
0.0
  0
LINE
  5
185
330
1B
100
AcDbEntity
 67
     1
  8
0
  6
Continuous
 62
     7
370
    25
100
AcDbLine
 10
-178.5
 20
288.3
 30
0.0
 11
-110.0
 21
288.3
 31
0.0
  0
LINE
  5
186
330
1B
100
AcDbEntity
 67
     1
  8
0
  6
Continuous
 62
     7
370
    25
100
AcDbLine
 10
178.5
 20
304.3
 30
0.0
 11
178.5
 21
288.3
 31
0.0
  0
LINE
  5
187
330
1B
100
AcDbEntity
 67
     1
  8
0
  6
Continuous
 62
     7
370
    25
100
AcDbLine
 10
110.0
 20
304.3
 30
0.0
 11
181.0
 21
304.3
 31
0.0
  0
LINE
  5
188
330
1B
100
AcDbEntity
 67
     1
  8
0
  6
Continuous
 62
     7
370
    25
100
AcDbLine
 10
110.0
 20
288.3
 30
0.0
 11
178.5
 21
288.3
 31
0.0
  0
LINE
  5
189
330
1B
100
AcDbEntity
 67
     1
  8
0
  6
Continuous
 62
     7
370
    25
100
AcDbLine
 10
-175.0
 20
304.3
 30
0.0
 11
-175.0
 21
373.8
 31
0.0
  0
LINE
  5
18A
330
1B
100
AcDbEntity
 67
     1
  8
0
  6
Continuous
 62
     7
370
    25
100
AcDbLine
 10
175.0
 20
372.3
 30
0.0
 11
-175.0
 21
372.3
 31
0.0
  0
LINE
  5
18B
330
1B
100
AcDbEntity
 67
     1
  8
0
  6
Continuous
 62
     7
370
    25
100
AcDbLine
 10
175.0
 20
304.3
 30
0.0
 11
175.0
 21
373.8
 31
0.0
  0
LINE
  5
18C
330
1B
100
AcDbEntity
 67
     1
  8
0
  6
Continuous
 62
     7
370
    25
100
AcDbLine
 10
-234.2
 20
0.0
 30
0.0
 11
234.2
 21
0.0
 31
0.0
  0
LINE
  5
18D
330
1B
100
AcDbEntity
 67
     1
  8
0
  6
Continuous
 62
     7
370
    25
100
AcDbLine
 10
216.0
 20
0.0
 30
0.0
 11
216.0
 21
600.0
 31
0.0
  0
LINE
  5
18E
330
1B
100
AcDbEntity
 67
     1
  8
0
  6
Continuous
 62
     7
370
    25
100
AcDbLine
 10
216.0
 20
600.0
 30
0.0
 11
234.2
 21
600.0
 31
0.0
  0
LINE
  5
18F
330
1B
100
AcDbEntity
 67
     1
  8
0
  6
Continuous
 62
     7
370
    25
100
AcDbLine
 10
234.2
 20
0.0
 30
0.0
 11
234.2
 21
600.0
 31
0.0
  0
LINE
  5
190
330
1B
100
AcDbEntity
 67
     1
  8
0
  6
Continuous
 62
     7
370
    25
100
AcDbLine
 10
211.0
 20
508.2
 30
0.0
 11
216.0
 21
508.2
 31
0.0
  0
LINE
  5
191
330
1B
100
AcDbEntity
 67
     1
  8
0
  6
Continuous
 62
     7
370
    25
100
AcDbLine
 10
216.0
 20
413.8
 30
0.0
 11
211.0
 21
413.8
 31
0.0
  0
LINE
  5
192
330
1B
100
AcDbEntity
 67
     1
  8
0
  6
Continuous
 62
     7
370
    25
100
AcDbLine
 10
214.0
 20
508.2
 30
0.0
 11
214.0
 21
413.8
 31
0.0
  0
LINE
  5
193
330
1B
100
AcDbEntity
 67
     1
  8
0
  6
Continuous
 62
     7
370
    25
100
AcDbLine
 10
212.8
 20
510.0
 30
0.0
 11
211.0
 21
510.0
 31
0.0
  0
LINE
  5
194
330
1B
100
AcDbEntity
 67
     1
  8
0
  6
Continuous
 62
     7
370
    25
100
AcDbLine
 10
212.8
 20
510.0
 30
0.0
 11
212.8
 21
508.2
 31
0.0
  0
LINE
  5
195
330
1B
100
AcDbEntity
 67
     1
  8
0
  6
Continuous
 62
     7
370
    25
100
AcDbLine
 10
212.8
 20
412.0
 30
0.0
 11
211.0
 21
412.0
 31
0.0
  0
LINE
  5
196
330
1B
100
AcDbEntity
 67
     1
  8
0
  6
Continuous
 62
     7
370
    25
100
AcDbLine
 10
212.8
 20
413.8
 30
0.0
 11
212.8
 21
412.0
 31
0.0
  0
LINE
  5
197
330
1B
100
AcDbEntity
 67
     1
  8
0
  6
Continuous
 62
     7
370
    25
100
AcDbLine
 10
-211.0
 20
510.0
 30
0.0
 11
-211.0
 21
403.9545252283
 31
0.0
  0
LINE
  5
198
330
1B
100
AcDbEntity
 67
     1
  8
0
  6
Continuous
 62
     7
370
    25
100
AcDbLine
 10
-211.0
 20
413.8
 30
0.0
 11
-216.0
 21
413.8
 31
0.0
  0
LINE
  5
199
330
1B
100
AcDbEntity
 67
     1
  8
0
  6
Continuous
 62
     7
370
    25
100
AcDbLine
 10
-214.0
 20
413.8
 30
0.0
 11
-214.0
 21
508.2
 31
0.0
  0
LINE
  5
19A
330
1B
100
AcDbEntity
 67
     1
  8
0
  6
Continuous
 62
     7
370
    25
100
AcDbLine
 10
-216.0
 20
508.2
 30
0.0
 11
-211.0
 21
508.2
 31
0.0
  0
LINE
  5
19B
330
1B
100
AcDbEntity
 67
     1
  8
0
  6
Continuous
 62
     7
370
    25
100
AcDbLine
 10
-212.8
 20
412.0
 30
0.0
 11
-211.0
 21
412.0
 31
0.0
  0
LINE
  5
19C
330
1B
100
AcDbEntity
 67
     1
  8
0
  6
Continuous
 62
     7
370
    25
100
AcDbLine
 10
-212.8
 20
412.0
 30
0.0
 11
-212.8
 21
413.8
 31
0.0
  0
LINE
  5
19D
330
1B
100
AcDbEntity
 67
     1
  8
0
  6
Continuous
 62
     7
370
    25
100
AcDbLine
 10
-212.8
 20
510.0
 30
0.0
 11
-211.0
 21
510.0
 31
0.0
  0
LINE
  5
19E
330
1B
100
AcDbEntity
 67
     1
  8
0
  6
Continuous
 62
     7
370
    25
100
AcDbLine
 10
-212.8
 20
508.2
 30
0.0
 11
-212.8
 21
510.0
 31
0.0
  0
LINE
  5
19F
330
1B
100
AcDbEntity
 67
     1
  8
0
  6
Continuous
 62
     7
370
    25
100
AcDbLine
 10
-110.0
 20
285.3
 30
0.0
 11
-110.0
 21
372.3
 31
0.0
  0
LINE
  5
1A0
330
1B
100
AcDbEntity
 67
     1
  8
0
  6
Continuous
 62
     7
370
    25
100
AcDbLine
 10
-78.0
 20
285.3
 30
0.0
 11
-78.0
 21
372.3
 31
0.0
  0
LINE
  5
1A1
330
1B
100
AcDbEntity
 67
     1
  8
0
  6
Continuous
 62
     7
370
    25
100
AcDbLine
 10
110.0
 20
285.3
 30
0.0
 11
110.0
 21
372.3
 31
0.0
  0
LINE
  5
1A2
330
1B
100
AcDbEntity
 67
     1
  8
0
  6
Continuous
 62
     7
370
    25
100
AcDbLine
 10
78.0
 20
285.3
 30
0.0
 11
78.0
 21
372.3
 31
0.0
  0
LINE
  5
1A3
330
1B
100
AcDbEntity
 67
     1
  8
0
  6
Continuous
 62
     7
370
    25
100
AcDbLine
 10
110.0
 20
285.3
 30
0.0
 11
-110.0
 21
285.3
 31
0.0
  0
LINE
  5
1A4
330
1B
100
AcDbEntity
 67
     1
  8
0
  6
Continuous
 62
     7
370
    25
100
AcDbLine
 10
-216.0
 20
18.2
 30
0.0
 11
216.0
 21
18.2
 31
0.0
  0
LINE
  5
1A5
330
1B
100
AcDbEntity
 67
     1
  8
0
  6
Continuous
 62
     7
370
    25
100
AcDbLine
 10
-205.7
 20
42.5
 30
0.0
 11
-205.7
 21
26.5
 31
0.0
  0
LINE
  5
1A6
330
1B
100
AcDbEntity
 67
     1
  8
0
  6
Continuous
 62
     7
370
    25
100
AcDbLine
 10
-205.7
 20
26.5
 30
0.0
 11
204.3
 21
26.5
 31
0.0
  0
LINE
  5
1A7
330
1B
100
AcDbEntity
 67
     1
  8
0
  6
Continuous
 62
     7
370
    25
100
AcDbLine
 10
204.3
 20
42.5
 30
0.0
 11
204.3
 21
26.5
 31
0.0
  0
LINE
  5
1A8
330
1B
100
AcDbEntity
 67
     1
  8
0
  6
Continuous
 62
     7
370
    25
100
AcDbLine
 10
-216.0
 20
600.0
 30
0.0
 11
-234.2
 21
600.0
 31
0.0
  0
LINE
  5
1A9
330
1B
100
AcDbEntity
 67
     1
  8
0
  6
Continuous
 62
     7
370
    25
100
AcDbLine
 10
-216.0
 20
0.0
 30
0.0
 11
-216.0
 21
600.0
 31
0.0
  0
LINE
  5
1AA
330
1B
100
AcDbEntity
 67
     1
  8
0
  6
Continuous
 62
     7
370
    25
100
AcDbLine
 10
-234.2
 20
0.0
 30
0.0
 11
-234.2
 21
600.0
 31
0.0
  0
LINE
  5
1AB
330
1B
100
AcDbEntity
 67
     1
  8
0
  6
Continuous
 62
     7
370
    25
100
AcDbLine
 10
216.0
 20
595.3
 30
0.0
 11
-216.0
 21
595.3
 31
0.0
  0
LINE
  5
1AC
330
1B
100
AcDbEntity
 67
     1
  8
0
  6
Continuous
 62
     7
370
    25
100
AcDbLine
 10
-163.1
 20
493.9545252283
 30
0.0
 11
-163.1
 21
403.9545252283
 31
0.0
  0
LINE
  5
1AD
330
1B
100
AcDbEntity
 67
     1
  8
0
  6
Continuous
 62
     7
370
    25
100
AcDbLine
 10
-163.1
 20
403.9545252283
 30
0.0
 11
-211.0
 21
403.9545252283
 31
0.0
  0
LINE
  5
1AE
330
1B
100
AcDbEntity
 67
     1
  8
0
  6
Continuous
 62
     7
370
    25
100
AcDbLine
 10
-211.0
 20
493.9545252283
 30
0.0
 11
-163.1
 21
493.9545252283
 31
0.0
  0
LINE
  5
1AF
330
1B
100
AcDbEntity
 67
     1
  8
0
  6
Continuous
 62
     7
370
    25
100
AcDbLine
 10
-178.1
 20
477.9545252283
 30
0.0
 11
-194.1
 21
477.9545252283
 31
0.0
  0
LINE
  5
1B0
330
1B
100
AcDbEntity
 67
     1
  8
0
  6
Continuous
 62
     7
370
    25
100
AcDbLine
 10
-194.1
 20
483.9545252283
 30
0.0
 11
-178.1
 21
483.9545252283
 31
0.0
  0
LINE
  5
1B1
330
1B
100
AcDbEntity
 67
     1
  8
0
  6
Continuous
 62
     7
370
    25
100
AcDbLine
 10
-183.1
 20
453.9545252283
 30
0.0
 11
-183.1
 21
443.9545252283
 31
0.0
  0
LINE
  5
1B2
330
1B
100
AcDbEntity
 67
     1
  8
0
  6
Continuous
 62
     7
370
    25
100
AcDbLine
 10
-189.1
 20
443.9545252283
 30
0.0
 11
-189.1
 21
453.9545252283
 31
0.0
  0
LINE
  5
1B3
330
1B
100
AcDbEntity
 67
     1
  8
0
  6
Continuous
 62
     7
370
    25
100
AcDbLine
 10
-178.1
 20
413.9545252283
 30
0.0
 11
-194.1
 21
413.9545252283
 31
0.0
  0
LINE
  5
1B4
330
1B
100
AcDbEntity
 67
     1
  8
0
  6
Continuous
 62
     7
370
    25
100
AcDbLine
 10
-194.1
 20
419.9545252283
 30
0.0
 11
-178.1
 21
419.9545252283
 31
0.0
  0
LINE
  5
1B5
330
1B
100
AcDbEntity
 67
     1
  8
0
  6
Continuous
 62
     7
370
    25
100
AcDbLine
 10
175.75
 20
-9.5
 30
0.0
 11
186.25
 21
-9.5
 31
0.0
  0
LINE
  5
1B6
330
1B
100
AcDbEntity
 67
     1
  8
0
  6
Continuous
 62
     7
370
    25
100
AcDbLine
 10
-174.2999687854
 20
117.0
 30
0.0
 11
-155.2999687854
 21
117.0
 31
0.0
  0
LINE
  5
1B7
330
1B
100
AcDbEntity
 67
     1
  8
0
  6
Continuous
 62
     7
370
    25
100
AcDbLine
 10
-155.2999687854
 20
117.0
 30
0.0
 11
-155.2999687854
 21
44.0
 31
0.0
  0
LINE
  5
1B8
330
1B
100
AcDbEntity
 67
     1
  8
0
  6
Continuous
 62
     7
370
    25
100
AcDbLine
 10
-174.2999687854
 20
44.0
 30
0.0
 11
-155.2999687854
 21
44.0
 31
0.0
  0
LINE
  5
1B9
330
1B
100
AcDbEntity
 67
     1
  8
0
  6
Continuous
 62
     7
370
    25
100
AcDbLine
 10
-174.2999687854
 20
194.0
 30
0.0
 11
-174.2999687854
 21
44.0
 31
0.0
  0
LINE
  5
1BA
330
1B
100
AcDbEntity
 67
     1
  8
0
  6
Continuous
 62
     7
370
    25
100
AcDbLine
 10
-206.7
 20
42.5
 30
0.0
 11
-206.7
 21
28.0
 31
0.0
  0
LINE
  5
1BB
330
1B
100
AcDbEntity
 67
     1
  8
0
  6
Continuous
 62
     7
370
    25
100
AcDbLine
 10
-206.7
 20
28.0
 30
0.0
 11
-208.2
 21
28.0
 31
0.0
  0
LINE
  5
1BC
330
1B
100
AcDbEntity
 67
     1
  8
0
  6
Continuous
 62
     7
370
    25
100
AcDbLine
 10
-208.2
 20
28.0
 30
0.0
 11
-208.2
 21
111.0
 31
0.0
  0
LINE
  5
1BD
330
1B
100
AcDbEntity
 67
     1
  8
0
  6
Continuous
 62
     7
370
    25
100
AcDbLine
 10
-208.2
 20
111.0
 30
0.0
 11
-201.2
 21
111.0
 31
0.0
  0
LINE
  5
1BE
330
1B
100
AcDbEntity
 67
     1
  8
0
  6
Continuous
 62
     7
370
    25
100
AcDbLine
 10
-201.2
 20
194.0
 30
0.0
 11
-201.2
 21
111.0
 31
0.0
  0
LINE
  5
1BF
330
1B
100
AcDbEntity
 67
     1
  8
0
  6
Continuous
 62
     7
370
    25
100
AcDbLine
 10
-201.2
 20
194.0
 30
0.0
 11
-174.2999687854
 21
194.0
 31
0.0
  0
LINE
  5
1C0
330
1B
100
AcDbEntity
 67
     1
  8
0
  6
Continuous
 62
     7
370
    25
100
AcDbLine
 10
172.8999687854
 20
44.0
 30
0.0
 11
153.8999687854
 21
44.0
 31
0.0
  0
LINE
  5
1C1
330
1B
100
AcDbEntity
 67
     1
  8
0
  6
Continuous
 62
     7
370
    25
100
AcDbLine
 10
172.8999687854
 20
194.0
 30
0.0
 11
172.8999687854
 21
44.0
 31
0.0
  0
LINE
  5
1C2
330
1B
100
AcDbEntity
 67
     1
  8
0
  6
Continuous
 62
     7
370
    25
100
AcDbLine
 10
153.8999687854
 20
117.0
 30
0.0
 11
153.8999687854
 21
44.0
 31
0.0
  0
LINE
  5
1C3
330
1B
100
AcDbEntity
 67
     1
  8
0
  6
Continuous
 62
     7
370
    25
100
AcDbLine
 10
153.8999687854
 20
117.0
 30
0.0
 11
172.8999687854
 21
117.0
 31
0.0
  0
LINE
  5
1C4
330
1B
100
AcDbEntity
 67
     1
  8
0
  6
Continuous
 62
     7
370
    25
100
AcDbLine
 10
199.8
 20
194.0
 30
0.0
 11
172.8999687854
 21
194.0
 31
0.0
  0
LINE
  5
1C5
330
1B
100
AcDbEntity
 67
     1
  8
0
  6
Continuous
 62
     7
370
    25
100
AcDbLine
 10
199.8
 20
194.0
 30
0.0
 11
199.8
 21
111.0
 31
0.0
  0
LINE
  5
1C6
330
1B
100
AcDbEntity
 67
     1
  8
0
  6
Continuous
 62
     7
370
    25
100
AcDbLine
 10
206.8
 20
111.0
 30
0.0
 11
199.8
 21
111.0
 31
0.0
  0
LINE
  5
1C7
330
1B
100
AcDbEntity
 67
     1
  8
0
  6
Continuous
 62
     7
370
    25
100
AcDbLine
 10
206.8
 20
28.0
 30
0.0
 11
206.8
 21
111.0
 31
0.0
  0
LINE
  5
1C8
330
1B
100
AcDbEntity
 67
     1
  8
0
  6
Continuous
 62
     7
370
    25
100
AcDbLine
 10
205.3
 20
28.0
 30
0.0
 11
206.8
 21
28.0
 31
0.0
  0
LINE
  5
1C9
330
1B
100
AcDbEntity
 67
     1
  8
0
  6
Continuous
 62
     7
370
    25
100
AcDbLine
 10
205.3
 20
42.5
 30
0.0
 11
205.3
 21
28.0
 31
0.0
  0
LINE
  5
1CA
330
1B
100
AcDbEntity
 67
     1
  8
0
  6
Continuous
 62
     7
370
    25
100
AcDbLine
 10
-216.0
 20
544.0
 30
0.0
 11
216.0
 21
544.0
 31
0.0
  0
LINE
  5
1CB
330
1B
100
AcDbEntity
 67
     1
  8
0
  6
Continuous
 62
     7
370
    25
100
AcDbLine
 10
163.1
 20
484.0
 30
0.0
 11
-163.1
 21
484.0
 31
0.0
  0
LINE
  5
1CC
330
1B
100
AcDbEntity
 67
     1
  8
0
  6
Continuous
 62
     7
370
    25
100
AcDbLine
 10
-175.0
 20
373.8
 30
0.0
 11
-203.0603485773
 21
373.8
 31
0.0
  0
LINE
  5
1CD
330
1B
100
AcDbEntity
 67
     1
  8
0
  6
Continuous
 62
     7
370
    25
100
AcDbLine
 10
-181.0
 20
287.8
 30
0.0
 11
-181.0
 21
304.3
 31
0.0
  0
LINE
  5
1CE
330
1B
100
AcDbEntity
 67
     1
  8
0
  6
Continuous
 62
     7
370
    25
100
AcDbLine
 10
-210.0
 20
366.8603485773
 30
0.0
 11
-210.0
 21
287.8
 31
0.0
  0
LINE
  5
1CF
330
1B
100
AcDbEntity
 67
     1
  8
0
  6
Continuous
 62
     7
370
    25
100
AcDbLine
 10
-210.0
 20
287.8
 30
0.0
 11
-181.0
 21
287.8
 31
0.0
  0
LINE
  5
1D0
330
1B
100
AcDbEntity
 67
     1
  8
0
  6
Continuous
 62
     7
370
    25
100
AcDbLine
 10
210.0
 20
366.8832161278
 30
0.0
 11
210.0
 21
287.8
 31
0.0
  0
LINE
  5
1D1
330
1B
100
AcDbEntity
 67
     1
  8
0
  6
Continuous
 62
     7
370
    25
100
AcDbLine
 10
210.0
 20
287.8
 30
0.0
 11
181.0
 21
287.8
 31
0.0
  0
LINE
  5
1D2
330
1B
100
AcDbEntity
 67
     1
  8
0
  6
Continuous
 62
     7
370
    25
100
AcDbLine
 10
181.0
 20
287.8
 30
0.0
 11
181.0
 21
304.3
 31
0.0
  0
LINE
  5
1D3
330
1B
100
AcDbEntity
 67
     1
  8
0
  6
Continuous
 62
     7
370
    25
100
AcDbLine
 10
175.0
 20
373.8
 30
0.0
 11
203.0832161278
 21
373.8
 31
0.0
  0
LINE
  5
1D4
330
1B
100
AcDbEntity
 67
     1
  8
0
  6
Continuous
 62
     7
370
    25
100
AcDbLine
 10
216.0
 20
208.2
 30
0.0
 11
-216.0
 21
208.2
 31
0.0
  0
LINE
  5
1D5
330
1B
100
AcDbEntity
 67
     1
  8
0
  6
Continuous
 62
     7
370
    25
100
AcDbLine
 10
-216.0
 20
268.2
 30
0.0
 11
216.0
 21
268.2
 31
0.0
  0
ARC
  5
1D6
330
1B
100
AcDbEntity
 67
     1
  8
0
  6
Continuous
 62
     7
370
    25
100
AcDbCircle
 10
186.1
 20
453.9545252283
 30
0.0
 40
3.000000000000028
100
AcDbArc
 50
0.0
 51
180.0
  0
ARC
  5
1D7
330
1B
100
AcDbEntity
 67
     1
  8
0
  6
Continuous
 62
     7
370
    25
100
AcDbCircle
 10
178.1
 20
480.9545252283
 30
0.0
 40
3.000000000000057
100
AcDbArc
 50
90.0
 51
270.0
  0
ARC
  5
1D8
330
1B
100
AcDbEntity
 67
     1
  8
0
  6
Continuous
 62
     7
370
    25
100
AcDbCircle
 10
194.1
 20
480.9545252283
 30
0.0
 40
3.0
100
AcDbArc
 50
270.0
 51
90.0
  0
ARC
  5
1D9
330
1B
100
AcDbEntity
 67
     1
  8
0
  6
Continuous
 62
     7
370
    25
100
AcDbCircle
 10
194.1
 20
416.9545252283
 30
0.0
 40
3.0
100
AcDbArc
 50
270.0
 51
90.0
  0
ARC
  5
1DA
330
1B
100
AcDbEntity
 67
     1
  8
0
  6
Continuous
 62
     7
370
    25
100
AcDbCircle
 10
178.1
 20
416.9545252283
 30
0.0
 40
3.000000000000057
100
AcDbArc
 50
90.0
 51
270.0
  0
ARC
  5
1DB
330
1B
100
AcDbEntity
 67
     1
  8
0
  6
Continuous
 62
     7
370
    25
100
AcDbCircle
 10
186.1
 20
443.9545252283
 30
0.0
 40
3.000000000000028
100
AcDbArc
 50
180.0
 51
0.0
  0
ARC
  5
1DC
330
1B
100
AcDbEntity
 67
     1
  8
0
  6
Continuous
 62
     7
370
    25
100
AcDbCircle
 10
-178.1
 20
480.9545252283
 30
0.0
 40
3.000000000000057
100
AcDbArc
 50
270.0
 51
90.0
  0
ARC
  5
1DD
330
1B
100
AcDbEntity
 67
     1
  8
0
  6
Continuous
 62
     7
370
    25
100
AcDbCircle
 10
-194.1
 20
480.9545252283
 30
0.0
 40
3.000000000000057
100
AcDbArc
 50
90.0
 51
270.0
  0
ARC
  5
1DE
330
1B
100
AcDbEntity
 67
     1
  8
0
  6
Continuous
 62
     7
370
    25
100
AcDbCircle
 10
-186.1
 20
453.9545252283
 30
0.0
 40
3.0
100
AcDbArc
 50
0.0
 51
180.0
  0
ARC
  5
1DF
330
1B
100
AcDbEntity
 67
     1
  8
0
  6
Continuous
 62
     7
370
    25
100
AcDbCircle
 10
-186.1
 20
443.9545252283
 30
0.0
 40
3.0
100
AcDbArc
 50
180.0
 51
0.0
  0
ARC
  5
1E0
330
1B
100
AcDbEntity
 67
     1
  8
0
  6
Continuous
 62
     7
370
    25
100
AcDbCircle
 10
-178.1
 20
416.9545252283
 30
0.0
 40
3.000000000000057
100
AcDbArc
 50
270.0
 51
90.0
  0
ARC
  5
1E1
330
1B
100
AcDbEntity
 67
     1
  8
0
  6
Continuous
 62
     7
370
    25
100
AcDbCircle
 10
-194.1
 20
416.9545252283
 30
0.0
 40
3.000000000000057
100
AcDbArc
 50
90.0
 51
270.0
  0
ARC
  5
1E2
330
1B
100
AcDbEntity
 67
     1
  8
0
  6
Continuous
 62
     7
370
    25
100
AcDbCircle
 10
-175.2
 20
44.5
 30
0.0
 40
1.999999999999963
100
AcDbArc
 50
270.0
 51
345.5224878141
  0
ARC
  5
1E3
330
1B
100
AcDbEntity
 67
     1
  8
0
  6
Continuous
 62
     7
370
    25
100
AcDbCircle
 10
-203.2
 20
199.5
 30
0.0
 40
8.000000000000005
100
AcDbArc
 50
316.5674634422
 51
284.4775121859
  0
ARC
  5
1E4
330
1B
100
AcDbEntity
 67
     1
  8
0
  6
Continuous
 62
     7
370
    25
100
AcDbCircle
 10
173.8
 20
44.5
 30
0.0
 40
2.000000000000053
100
AcDbArc
 50
194.4775121859
 51
270.0
  0
ARC
  5
1E5
330
1B
100
AcDbEntity
 67
     1
  8
0
  6
Continuous
 62
     7
370
    25
100
AcDbCircle
 10
201.8
 20
199.5
 30
0.0
 40
8.000000000000018
100
AcDbArc
 50
255.5224878141
 51
223.4325365578
  0
ARC
  5
1E6
330
1B
100
AcDbEntity
 67
     1
  8
0
  6
Continuous
 62
     7
370
    25
100
AcDbCircle
 10
-203.0603485773
 20
366.8603485773
 30
0.0
 40
6.939651422715372
100
AcDbArc
 50
90.0
 51
180.0
  0
ARC
  5
1E7
330
1B
100
AcDbEntity
 67
     1
  8
0
  6
Continuous
 62
     7
370
    25
100
AcDbCircle
 10
203.0832161278
 20
366.8832161278
 30
0.0
 40
6.916783872248345
100
AcDbArc
 50
0.0
 51
90.0
  0
VIEWPORT
  5
4B9
330
1B
100
AcDbEntity
 67
     1
  8
0
100
AcDbViewport
 10
0.0
 20
0.0
 30
0.0
 40
205.6
 41
156.0
 68
     1
 69
     1
 12
0.0
 22
295.25
 13
0.0
 23
0.0
 14
10.0
 24
10.0
 15
10.0
 25
10.0
 16
0.0
 26
0.0
 36
1.0
 17
0.0
 27
0.0
 37
0.0
 42
50.0
 43
0.0
 44
0.0
 45
621.69
 50
0.0
 51
0.0
 72
   100
 90
   557152
  1

281
     0
 71
     1
 74
     0
110
0.0
120
0.0
130
0.0
111
1.0
121
0.0
131
0.0
112
0.0
122
1.0
132
0.0
 79
     0
146
0.0
  0
ENDSEC
  0
SECTION
  2
OBJECTS
  0
DICTIONARY
  5
C
330
0
100
AcDbDictionary
281
     1
  3
ACAD_GROUP
350
D
  3
ACAD_LAYOUT
350
1A
  3
ACAD_MLINESTYLE
350
17
  3
ACAD_PLOTSETTINGS
350
19
  3
ACAD_PLOTSTYLENAME
350
E
  3
ACAD_SCALELIST
350
47
  0
DICTIONARY
  5
D
102
{ACAD_REACTORS
330
C
102
}
330
C
100
AcDbDictionary
281
     1
  0
DICTIONARY
  5
1A
102
{ACAD_REACTORS
330
C
102
}
330
C
100
AcDbDictionary
281
     1
  3
_Back
350
1E
  3
_Isometric
350
31A
  3
_Left
350
26
  3
_Top
350
21A
  3
Model
350
22
  0
DICTIONARY
  5
17
102
{ACAD_REACTORS
330
C
102
}
330
C
100
AcDbDictionary
281
     1
  3
Standard
350
18
  0
DICTIONARY
  5
19
102
{ACAD_REACTORS
330
C
102
}
330
C
100
AcDbDictionary
281
     1
  0
ACDBDICTIONARYWDFLT
  5
E
102
{ACAD_REACTORS
330
C
102
}
330
C
100
AcDbDictionary
281
     1
  3
Normal
350
F
100
AcDbDictionaryWithDefault
340
F
  0
DICTIONARY
  5
47
102
{ACAD_REACTORS
330
C
102
}
330
C
100
AcDbDictionary
281
     1
  3
A0
350
48
  3
A1
350
49
  3
A2
350
4A
  3
A3
350
4B
  3
A4
350
4C
  3
A5
350
4D
  3
A6
350
4E
  3
A7
350
4F
  3
A8
350
50
  3
A9
350
51
  3
B0
350
52
  3
B1
350
53
  3
B2
350
54
  3
B3
350
55
  3
B4
350
56
  3
B5
350
57
  3
B6
350
58
  3
B7
350
59
  3
B8
350
5A
  3
B9
350
5B
  3
C0
350
5C
  3
C1
350
5D
  3
C2
350
5E
  3
C3
350
5F
  3
C4
350
60
  3
C5
350
61
  3
C6
350
62
  3
C7
350
63
  3
C8
350
64
  3
C9
350
65
  3
D0
350
66
  3
D1
350
67
  3
D2
350
68
  0
LAYOUT
  5
1E
102
{ACAD_REACTORS
330
1A
102
}
330
1A
100
AcDbPlotSettings
  1

  2
none_device
  4
ISO_A4_(210.00_x_297.00_MM)
  6

 40
7.5
 41
20.0
 42
7.5
 43
20.0
 44
210.0
 45
297.0
 46
0.0
 47
0.0
 48
0.0
 49
0.0
140
0.0
141
0.0
142
1.0
143
3.1256410256
 70
   688
 72
     1
 73
     1
 74
     1
  7

 75
     0
147
0.3199343724
148
234.2
149
9.5
100
AcDbLayout
  1
_Back
 70
     1
 71
     1
 10
-296.7128205128
 20
-32.9423076923
 11
631.6025641026
 21
623.4423076923
 12
0.0
 22
0.0
 32
0.0
 14
-234.2
 24
-9.5
 34
0.0
 15
234.2
 25
600.0
 35
0.0
146
0.0
 13
0.0
 23
0.0
 33
0.0
 16
1.0
 26
0.0
 36
0.0
 17
0.0
 27
1.0
 37
0.0
 76
     0
330
1B
331
4B9
  0
LAYOUT
  5
31A
102
{ACAD_REACTORS
330
1A
102
}
330
1A
100
AcDbPlotSettings
  1

  2
none_device
  4
ISO_A4_(210.00_x_297.00_MM)
  6

 40
7.5
 41
20.0
 42
7.5
 43
20.0
 44
210.0
 45
297.0
 46
0.0
 47
0.0
 48
0.0
 49
0.0
140
0.0
141
0.0
142
1.0
143
3.1256410256
 70
   688
 72
     1
 73
     1
 74
     1
  7

 75
     0
147
0.3199343724
148
234.2
149
9.5
100
AcDbLayout
  1
_Isometric
 70
     1
 71
     4
 10
0.0
 20
0.0
 11
0.0
 21
0.0
 12
0.0
 22
0.0
 32
0.0
 14
0.0
 24
0.0
 34
0.0
 15
0.0
 25
0.0
 35
0.0
146
0.0
 13
0.0
 23
0.0
 33
0.0
 16
1.0
 26
0.0
 36
0.0
 17
0.0
 27
1.0
 37
0.0
 76
     0
330
319
331
4BF
  0
LAYOUT
  5
26
102
{ACAD_REACTORS
330
1A
102
}
330
1A
100
AcDbPlotSettings
  1

  2
none_device
  4
ISO_A4_(210.00_x_297.00_MM)
  6

 40
7.5
 41
20.0
 42
7.5
 43
20.0
 44
210.0
 45
297.0
 46
0.0
 47
0.0
 48
0.0
 49
0.0
140
0.0
141
0.0
142
1.0
143
3.1256410256
 70
   688
 72
     1
 73
     1
 74
     1
  7

 75
     0
147
0.3199343724
148
234.2
149
9.5
100
AcDbLayout
  1
_Left
 70
     1
 71
     2
 10
0.0
 20
0.0
 11
0.0
 21
0.0
 12
0.0
 22
0.0
 32
0.0
 14
0.0
 24
0.0
 34
0.0
 15
0.0
 25
0.0
 35
0.0
146
0.0
 13
0.0
 23
0.0
 33
0.0
 16
1.0
 26
0.0
 36
0.0
 17
0.0
 27
1.0
 37
0.0
 76
     0
330
23
331
4BB
  0
LAYOUT
  5
21A
102
{ACAD_REACTORS
330
1A
102
}
330
1A
100
AcDbPlotSettings
  1

  2
none_device
  4
ISO_A4_(210.00_x_297.00_MM)
  6

 40
7.5
 41
20.0
 42
7.5
 43
20.0
 44
210.0
 45
297.0
 46
0.0
 47
0.0
 48
0.0
 49
0.0
140
0.0
141
0.0
142
1.0
143
3.1256410256
 70
   688
 72
     1
 73
     1
 74
     1
  7

 75
     0
147
0.3199343724
148
234.2
149
9.5
100
AcDbLayout
  1
_Top
 70
     1
 71
     3
 10
0.0
 20
0.0
 11
0.0
 21
0.0
 12
0.0
 22
0.0
 32
0.0
 14
0.0
 24
0.0
 34
0.0
 15
0.0
 25
0.0
 35
0.0
146
0.0
 13
0.0
 23
0.0
 33
0.0
 16
1.0
 26
0.0
 36
0.0
 17
0.0
 27
1.0
 37
0.0
 76
     0
330
219
331
4BD
  0
LAYOUT
  5
22
102
{ACAD_REACTORS
330
1A
102
}
330
1A
100
AcDbPlotSettings
  1

  2
none_device
  4
ANSI_A_(11.00_x_8.50_Inches)
  6

 40
6.35
 41
19.05
 42
6.35000508
 43
19.05000254
 44
279.4
 45
215.9
 46
133.34999746
 47
-14.6390172667
 48
0.0
 49
0.0
140
0.0
141
0.0
142
0.0138063987
143
1.0
 70
  1696
 72
     0
 73
     0
 74
     0
  7

 75
     0
147
0.0179189148
148
-1300.4909072572
149
0.0
100
AcDbLayout
  1
Model
 70
     1
 71
     0
 10
0.0
 20
0.0
 11
420.0
 21
297.0
 12
0.0
 22
0.0
 32
0.0
 14
-234.2
 24
-9.5
 34
0.0
 15
234.2
 25
600.0
 35
0.0
146
0.0
 13
0.0
 23
0.0
 33
0.0
 16
1.0
 26
0.0
 36
0.0
 17
0.0
 27
1.0
 37
0.0
 76
     0
330
1F
331
29
  0
MLINESTYLE
  5
18
102
{ACAD_REACTORS
330
17
102
}
330
17
100
AcDbMlineStyle
  2
Standard
 70
     0
  3

 62
   256
 51
90.0
 52
90.0
 71
     2
 49
0.5
 62
   256
  6
BYLAYER
 49
-0.5
 62
   256
  6
BYLAYER
  0
ACDBPLACEHOLDER
  5
F
102
{ACAD_REACTORS
330
E
102
}
330
E
  0
SCALE
  5
48
102
{ACAD_REACTORS
330
47
102
}
330
47
100
AcDbScale
 70
     0
300
1:1
140
1.0
141
1.0
290
     1
  0
SCALE
  5
49
102
{ACAD_REACTORS
330
47
102
}
330
47
100
AcDbScale
 70
     0
300
1:2
140
1.0
141
2.0
290
     0
  0
SCALE
  5
4A
102
{ACAD_REACTORS
330
47
102
}
330
47
100
AcDbScale
 70
     0
300
1:4
140
1.0
141
4.0
290
     0
  0
SCALE
  5
4B
102
{ACAD_REACTORS
330
47
102
}
330
47
100
AcDbScale
 70
     0
300
1:5
140
1.0
141
5.0
290
     0
  0
SCALE
  5
4C
102
{ACAD_REACTORS
330
47
102
}
330
47
100
AcDbScale
 70
     0
300
1:8
140
1.0
141
8.0
290
     0
  0
SCALE
  5
4D
102
{ACAD_REACTORS
330
47
102
}
330
47
100
AcDbScale
 70
     0
300
1:10
140
1.0
141
10.0
290
     0
  0
SCALE
  5
4E
102
{ACAD_REACTORS
330
47
102
}
330
47
100
AcDbScale
 70
     0
300
1:16
140
1.0
141
16.0
290
     0
  0
SCALE
  5
4F
102
{ACAD_REACTORS
330
47
102
}
330
47
100
AcDbScale
 70
     0
300
1:20
140
1.0
141
20.0
290
     0
  0
SCALE
  5
50
102
{ACAD_REACTORS
330
47
102
}
330
47
100
AcDbScale
 70
     0
300
1:30
140
1.0
141
30.0
290
     0
  0
SCALE
  5
51
102
{ACAD_REACTORS
330
47
102
}
330
47
100
AcDbScale
 70
     0
300
1:40
140
1.0
141
40.0
290
     0
  0
SCALE
  5
52
102
{ACAD_REACTORS
330
47
102
}
330
47
100
AcDbScale
 70
     0
300
1:50
140
1.0
141
50.0
290
     0
  0
SCALE
  5
53
102
{ACAD_REACTORS
330
47
102
}
330
47
100
AcDbScale
 70
     0
300
1:100
140
1.0
141
100.0
290
     0
  0
SCALE
  5
54
102
{ACAD_REACTORS
330
47
102
}
330
47
100
AcDbScale
 70
     0
300
2:1
140
2.0
141
1.0
290
     0
  0
SCALE
  5
55
102
{ACAD_REACTORS
330
47
102
}
330
47
100
AcDbScale
 70
     0
300
4:1
140
4.0
141
1.0
290
     0
  0
SCALE
  5
56
102
{ACAD_REACTORS
330
47
102
}
330
47
100
AcDbScale
 70
     0
300
8:1
140
8.0
141
1.0
290
     0
  0
SCALE
  5
57
102
{ACAD_REACTORS
330
47
102
}
330
47
100
AcDbScale
 70
     0
300
10:1
140
10.0
141
1.0
290
     0
  0
SCALE
  5
58
102
{ACAD_REACTORS
330
47
102
}
330
47
100
AcDbScale
 70
     0
300
100:1
140
100.0
141
1.0
290
     0
  0
SCALE
  5
59
102
{ACAD_REACTORS
330
47
102
}
330
47
100
AcDbScale
 70
     0
300
1/128" = 1'-0"
140
0.0078125
141
12.0
290
     0
  0
SCALE
  5
5A
102
{ACAD_REACTORS
330
47
102
}
330
47
100
AcDbScale
 70
     0
300
1/64" = 1'-0"
140
0.015625
141
12.0
290
     0
  0
SCALE
  5
5B
102
{ACAD_REACTORS
330
47
102
}
330
47
100
AcDbScale
 70
     0
300
1/32" = 1'-0"
140
0.03125
141
12.0
290
     0
  0
SCALE
  5
5C
102
{ACAD_REACTORS
330
47
102
}
330
47
100
AcDbScale
 70
     0
300
1/16" = 1'-0"
140
0.0625
141
12.0
290
     0
  0
SCALE
  5
5D
102
{ACAD_REACTORS
330
47
102
}
330
47
100
AcDbScale
 70
     0
300
3/32" = 1'-0"
140
0.09375
141
12.0
290
     0
  0
SCALE
  5
5E
102
{ACAD_REACTORS
330
47
102
}
330
47
100
AcDbScale
 70
     0
300
1/8" = 1'-0"
140
0.125
141
12.0
290
     0
  0
SCALE
  5
5F
102
{ACAD_REACTORS
330
47
102
}
330
47
100
AcDbScale
 70
     0
300
3/16" = 1'-0"
140
0.1875
141
12.0
290
     0
  0
SCALE
  5
60
102
{ACAD_REACTORS
330
47
102
}
330
47
100
AcDbScale
 70
     0
300
1/4" = 1'-0"
140
0.25
141
12.0
290
     0
  0
SCALE
  5
61
102
{ACAD_REACTORS
330
47
102
}
330
47
100
AcDbScale
 70
     0
300
3/8" = 1'-0"
140
0.375
141
12.0
290
     0
  0
SCALE
  5
62
102
{ACAD_REACTORS
330
47
102
}
330
47
100
AcDbScale
 70
     0
300
1/2" = 1'-0"
140
0.5
141
12.0
290
     0
  0
SCALE
  5
63
102
{ACAD_REACTORS
330
47
102
}
330
47
100
AcDbScale
 70
     0
300
3/4" = 1'-0"
140
0.75
141
12.0
290
     0
  0
SCALE
  5
64
102
{ACAD_REACTORS
330
47
102
}
330
47
100
AcDbScale
 70
     0
300
1" = 1'-0"
140
1.0
141
12.0
290
     0
  0
SCALE
  5
65
102
{ACAD_REACTORS
330
47
102
}
330
47
100
AcDbScale
 70
     0
300
1-1/2" = 1'-0"
140
1.5
141
12.0
290
     0
  0
SCALE
  5
66
102
{ACAD_REACTORS
330
47
102
}
330
47
100
AcDbScale
 70
     0
300
3" = 1'-0"
140
3.0
141
12.0
290
     0
  0
SCALE
  5
67
102
{ACAD_REACTORS
330
47
102
}
330
47
100
AcDbScale
 70
     0
300
6" = 1'-0"
140
6.0
141
12.0
290
     0
  0
SCALE
  5
68
102
{ACAD_REACTORS
330
47
102
}
330
47
100
AcDbScale
 70
     0
300
1'-0" = 1'-0"
140
12.0
141
12.0
290
     0
  0
ENDSEC
  0
EOF
